» » »

Idlewild, Annihilate Now! Tabs (ver.1)

Artists:  A B C D E F G H I J K L M N O P Q R S T U V W X Y Z # 

Annihilate Now! Tabs (ver.1)

Idlewild Tabs
 Rating:
4/5 (4 votes)
Annihilate Now! lessons Tabs too difficult? Try these video lessons and learn fast
                
Drop-D
intro

             *4 When you alive now
                G        D
E--------------------------------
B--------------------------------
G--------------------------------
D--------------------5--------0--
A----9h10p9/5------5----------0--
D----------------5------0--0-----




    G      D
or if your alive now
     G        D
your always ignored
       G            D
so you sleep on the floor
      G       D
your above me now
g     d      G D
above me now        


CHORUS

   annihilate now
E----------------
B----------------
G----------------
D---0----0---------
A---4----5---------
D---5----5---------(for the sake of time I'll call these 2 chords CH1 and CH2)

    CH1    CH2
and now you late now

then there's this riff (which has been simplified for sake of time)

Riff 1

E------------------------------------------------
B------------------------------------------------
G---9----11----9----11---9----11---9----11H12P11-------------------
D------------------------------------------------
A---7----9-----7----9----7----9----7----9----------------
D---0----0-----0----0----0----0----0----0----------------


Same chords as 1st verse

When your alive now
or if your alive now
I'm definitely not here just to have fun
your above me now
above me now
When your alive now
or if your alive now
no one is here just to have fun
your above me now
above me now



Chorus 
then 

CH2 X3 CH1 X2 (X4)
Riff 1
CH2 X3 CH1 X2 (X4)
Riff 1

Same chords as 1st Verse

When your alive now
or if your alive now
i know your supposed to do
things you don't want to do
why?

CH2 X3 CH1 X1 (X4)

Theres only one room at the end
theres only one room at the end 
D
so lets pretend were at the end
            
Submit corrections

comments powered by Disqus
↑ Back to top | Idlewild Tabs for Annihilate Now!. Lyrics for acoustic guitar and electric guitar. Tablatures and chords are parodies/interpretations of the original songs. You may use it for private study, scholarship, research or language learning purposes only