» » »

Idlewild, A Ghost In The Arcade Tabs (ver.1)

Artists:  A B C D E F G H I J K L M N O P Q R S T U V W X Y Z # 

A Ghost In The Arcade Tabs (ver.1)

Idlewild Tabs
Rating:
5/5 (2 votes)
A Ghost In The Arcade lessons Tabs too difficult? Try these video lessons and learn fast
                A very awesome song.
I added in both guitar where I could. Hope you enjoy!

Intro:

Guitar 1
e|----------------|
B|----------------|
G|7---------------|
D|--7-9-7-9-7-----|
A|------------7-9-|
E|----------------| x8

Guitar 2
e|7-5---------------------------5-|
B|----7-5---------------5-7-5-7---|
G|--------7-6-4-6-7-6-7-----------|
D|--------------------------------|
A|--------------------------------|
E|--------------------------------| x4

Verse 1:

e|----------------------------------------------------------------|
B|----------------------------------------------------------------|
G|--------------------------------7-7-7-7-7-7-7-7-----------------|
D|9-9-9-9-9-9-9-9-9-9-9-9-9-9-9-9-7-7-7-7-7-7-7-7-7-7-7-7-7-7-7-7-|
A|9-9-9-9-9-9-9-9-9-9-9-9-9-9-9-9-5-5-5-5-5-5-5-5-7-7-7-7-7-7-7-7-|
E|7-7-7-7-7-7-7-7-7-7-7-7-7-7-7-7-----------------5-5-5-5-5-5-5-5-| x4

Bridge:

Guitar 1:

e|----------------------------------------------------------------|
B|----------------------------------------------------------------|
G|----------------7-7-7-7-7-7-7-7-1111111111111111111111111111111-|
D|9-9-9-9-9-9-9-9-7-7-7-7-7-7-7-7-1111111111111111111111111111111-|
A|9-9-9-9-9-9-9-9-5-5-5-5-5-5-5-5-9-9-9-9-9-9-9-9-9-9-9-9-9-9-9-9-|
E|7-7-7-7-7-7-7-7-------------------------------------------------|

e|----------------------------------------------------------------|
B|----------------------------------------------------------------|
G|----------------7-7-7-7-7-7-7-7---------------------------------|
D|9-9-9-9-9-9-9-9-7-7-7-7-7-7-7-7-9-9-9-9-9-9-9-9-9---------------|
A|9-9-9-9-9-9-9-9-5-5-5-5-5-5-5-5-9-9-9-9-9-9-9-9-9---------------|
E|7-7-7-7-7-7-7-7-----------------7-7-7-7-7-7-7-7-7-(let ring)----|

Guitar 2

(Repeating Intro)

Chorus:

(Same as Verse)

Post Chorus:

(Same as Guitar 2's Intro/Bridge) x2

Then
e|7-5-7-7-7-9-9-9-|
B|----------------|
G|----------------|
D|----------------|
A|----------------|
E|----------------| x2

e|7-9-9-10-10-9-9-7-7-5-5-----------|
B|------------------------7-7-5-----|
G|------------------------------7-6-|
D|----------------------------------|
A|----------------------------------|
E|----------------------------------|

Verse 2:

e|----------------------------------------------------------------|
B|----------------------------------------------------------------|
G|--------------------------------4-4-4-4-4-4-4-4-----------------|
D|4-4-4-4-4-4-4-4-4-4-4-4-4-4-4-4-4-4-4-4-4-4-4-4-7-7-7-7-7-7-7-7-|
A|4-4-4-4-4-4-4-4-4-4-4-4-4-4-4-4-2-2-2-2-2-2-2-2-7-7-7-7-7-7-7-7-|
E|2-2-2-2-2-2-2-2-2-2-2-2-2-2-2-2-----------------5-5-5-5-5-5-5-5-| x3

Solo/Pre-Chorus Thingy:

e|-------------------------------------------------------------------|
B|-------------------------------------------------------------------|
G|--------------------------9-11-11--4-4-4-4-4-4-4-4-----------------|
D|----------7---7-9-11-9-11----------4-4-4-4-4-4-4-4-7-7-7-7-7-7-7-7-|
A|5-7-9-7-9---9----------------------2-2-2-2-2-2-2-2-7-7-7-7-7-7-7-7-|
E|---------------------------------------------------5-5-5-5-5-5-5-5-|

Chorus

Outro:

(Same as Guitar 2's Intro) x2

Then
e|7-5-7-7-7-9-9-9-7-5-7-5-7-9-9-9-7-5---------7-5-7-5-----------------|
B|------------------------------------7-5-7-5---------7-5-7-5---------|
G|------------------------------------------------------------7-6-4---|
D|----------------------------------------------------------------4---|
A|----------------------------------------------------------------2---|
E|--------------------------------------------------------------------|
            
Submit corrections

comments powered by Disqus
↑ Back to top | Idlewild Tabs for A Ghost In The Arcade. Lyrics for acoustic guitar and electric guitar. Tablatures and chords are parodies/interpretations of the original songs. You may use it for private study, scholarship, research or language learning purposes only