» » »

Distant History Tabs (ver.1)

Artists:  A B C D E F G H I J K L M N O P Q R S T U V W X Y Z # 

Distant History Tabs (ver.1)

Idlewild
Rating:
4/5 (1 vote)

Tabs too difficult? Try these video lessons and learn fast.
                Tune down 1/2 step


Chords used

	Eb Ab Db Gb Bb eb

E5	 0  2  2  x  x  x
G5       3  5  5  x  x  x
C5       x  3  5  5  x  x
D5       x  5  7  7  x  x
E5type2  x  7  9  9  x  x 
G5type2  x 10 12 12  x  x 



Verse 1

eb|-----------------7------------------------------------------------7-5/7----|
Bb|-------7-5---------7-5-------7-5----------7-5---------7-5------------------|
Gb|-----------------------------------------------7---------------------------|
Db|---------------------------------------------------------------------------|
Ab|----5---------5------------5----------5------------5-----------5-----------|
Eb|--3---------3------------3---------3------------3-----------3--------------|


eb|--------------------7------------------------------------------------------------|
Bb|--------7-5------------7--5--------5-5----------5-5-----------5-5----------------|
Gb|----------------------------------------7-------------7----------------5-----7---|
Db|--------------------------------5-------------5-------------5--------5-----7-----|
Ab|----5-----------5------------3-------------3-------------3---------3-----5-------|
Eb|-3-----------3-------------------------------------------------------------------|

eb|-----------------7-------------------------5--------|
Bb|-------7-5---------7-5-------7-5---------7---7/-----|
Gb|----------------------------------------------------|
Db|----------------------------------------------------|
Ab|----5---------5------------5----------5-------------|
Eb|--3---------3------------3---------3----------------|


POST VERSE

Guitar 1

|D5  |C5  |D5  |C5 |

Guitar 2

    |D5        |C5        |D5                 |C5      | (Guitar 1)
eb|-------------------------------------------------------------------|
Bb|-------------------------------------------------------------------|
Gb|--7-7-7-(7)--5-5-5-(5)--7-7-7-(7)--7b9-(9)--5-5-5-(5)--7-7-/9-/12--|
Db|--7-7-7-(7)--5-5-5-(5)--7-7-7-(7)-----------5-5-5-(5)--x-x--x---x--|
Ab|--5-5-5-(5)--3-3-3-(3)--5-5-5-(5)-----------3-3-3-(3)--5-5-/7-/10--|
Eb|-------------------------------------------------------------------|


BRIDGE

Guitar 1

|G5  |G5  |E5  |E5  |G5type2|G5  |D5   |D5  |

Guitar 2 (With delay second time)
	
eb|--------------------------------------------|
Bb|*------------------------------------------*|
Gb|--16-16-16-16-16-16/14-14-14-14/12-12-12\---|Repeat twice	
Db|---x--x--x--x--x--x--x--x--x--x--x--x--x----|
Ab|*-14-14-14-14-14-14/12-12-12-12/10-10-10\--*|
Eb|--------------------------------------------|

eb|---------------------------------------------------------------------------------------|
Bb|---------------------------------------------------------------------------------------|
Gb|-11/12-(12)-12-12-12-12-12-12-12-12-12-12-12\11-11-11/12-12-12/14-14-14-14\12-12-12-12/|
Db|--x--x---x---x--x--x--x--x--x--x--x--x--x--x--x--x--x--x--x--x--x--x--x--x--x--x--x--x-|
Ab|--9/10-(10)-10-10-10-10-10-10-10-10-10-10-10\-9--9--9/10-10-10/12-12-12-12\10-10-10-10/|
Eb|---------------------------------------------------------------------------------------|

eb|--------------------------------------------------------------------------------|
Bb|--------------------------------------------------------------------------------|
Gb|--16-16-16-16-16-16/14-14-14-14/12-12-12\16-16-16-16-16-16/17-17-17/19-19-19\---|
Db|---x--x--x--x--x--x--x--x--x--x--x--x--x--x--x--x--x--x--x--x--x--x--x--x--x----|
Ab|--14-14-14-14-14-14/12-12-12-12/10-10-10\14-14-14-14-14-14/15-15-15/17-17-17\---|
Eb|--------------------------------------------------------------------------------|

eb|--------------------------------------------------------------------------------|
Bb|--------------------------------------------------------------------------------|
Gb|-12/14-14-14-14-14-14-14-14-14-14-14-12-12-12-14-14-14-14-14-14-16-16-16-16-----|
Db|--x--x--x--x--x--x--x--x--x--x--x--x--x--x--x--x--x--x--x--x--x--x--x--x--x-----|
Ab|-10/12-12-12-12-12-12-12-12-12-12-12-10-10-10-12-12-12-12-12-12-14-14-14-14-----|
Eb|--------------------------------------------------------------------------------|


CHORUS

Guitar 1

|G5  |E5 C5| X4

Guitar 2

eb|-----------------------------|
Bb|-----------------------------|
Gb|----12----12-(12)----9-9-----|
Db|-------------------------10~-|
Ab|-10----10--------------------|
Eb|-----------------------------|


VERSE 2

eb|-----------------7------------------------7----------------------------7----|
Bb|-------7-5---------7-5-------7-5-------------7-5------7-5---------5h7-----7-|
Gb|----------------------------------------------------------------------------|
Db|----------------------------------------------------------------------------|
Ab|----5---------5------------5----------5------------5-----------5------------|
Eb|--3---------3------------3---------3------------3-----------3---------------|


eb|--------------------7------------------------------------------------------------|
Bb|--------7-5------------7--5--------5-5----------5-5-----------5-5----------------|
Gb|----------------------------------------7-------------7----------------5----7----|
Db|--------------------------------5-------------5-------------5--------5-----------|
Ab|----5-----------5------------3-------------3-------------3---------3-----5-------|
Eb|-3-----------3-------------------------------------------------------------------|

eb|-----------------7----------------------------7-5---|
Bb|-------7-5---------7-5--------7-5--------5/7--------|
Gb|----------------------------------------------------|
Db|----------------------------------------------------|
Ab|----5---------5------------5----------5-------------|
Eb|--3---------3------------3----------3---------------|


Interlude

Guitar 2

eb|------|
Bb|------|
Gb|-12~--|
Db|--x---|
Ab|-10~--|
Eb|------|

Bass  [] every third progression

Gb|-------------------------------------------------------------|
Db|*-----------------------9-9---------------10-10-10-10-10-10-*|
Ab|*10-10-10-10-10-10-10-------7-7-7-7-7-7---------------------*|
Eb|------------------------------------------[8-8-8-8-8-8-8]----|


PIANO: la la la

eb|-------------------------------------------------------------|
Bb|*15-15-(15)-12-13-12----12-(12)-(12)--------12--------------*|
Gb|---------------------14---------------12-14-----14-12--------|
Db|-------------------------------------------------------12----|
Ab|*-----------------------------------------------------------*|
Eb|-------------------------------------------------------------|


Outro

Guitars 1&2

|G5   |E5  C5|  repeat several times, then changes E5 position
|G5   |E5type2  C5|

Song Order

Verse 1
Post Verse
Bridge
Chorus
Verse 2
Post Verse
Bridge
Chorus
Interlude
Outro
            
Tabs too difficult? Try these video lessons and learn fast.


comments powered by Disqus
↑ Back to top | Tablatures and chords are parodies/interpretations of the original songs. You may use it for private study, scholarship, research or language learning purposes only