» » »

Idlewild, Actually It's Darkness Bass tabs (ver.2)

Artists:  A B C D E F G H I J K L M N O P Q R S T U V W X Y Z # 

Actually It's Darkness Bass tabs (ver.2)

Idlewild Tabs
 Rating:
4/5 (4 votes)
Actually It's Darkness lessons Tabs too difficult? Try these video lessons and learn fast
                band- idlewild
song- actually it's darkness
album- 100 broken windows(2000)
bassist- bob fairfoul

Actually its darkness
Verse - You thought the fire would protect you from it....
g---------------------------------
d------------------1-1-1----4-4-4-
a-4-4-4-4-4-4-4-------------------
e---------------------------------

Pre chorus - but actually its darkness.....
g-------------------------------
d----------------4-4-4-4-1-1-1-1
a-------------------------------
e-4-4-4-4-4-4-4-----------------

chorus- you SHED a shade of shy-y-ness.....
g-----------------------------------
d-----------------------------------
a-4-4-4-4---------1-1-1-1-----------
e---------2-2-2-2---------4-4-4-4---



<<<sarah's version
verse
g------------------------------
d-----------------3-3-3--1-1-1-
a-4-4-4-4-4-4-4-4--------------
e------------------------------

prechorus

g------------------------------
d------------------------------
a------------------------------
e-4-4-4-4-4-4-4-4-2-2-2--1-1-1-

chorus

g---------3-3-1-1-
d-----3-3---------
a-4-4-------------
e----------------- >>>
            
Submit corrections

comments powered by Disqus
↑ Back to top | Idlewild Bass for Actually It's Darkness. Lyrics for acoustic guitar and electric guitar. Tablatures and chords are parodies/interpretations of the original songs. You may use it for private study, scholarship, research or language learning purposes only