» » »

Idlewild, Actually It's Darkness Tabs (ver.1)

Artists:  A B C D E F G H I J K L M N O P Q R S T U V W X Y Z # 

Actually It's Darkness Tabs (ver.1)

Idlewild Tabs
Rating:
0/5 (0 votes)
Actually It's Darkness lessons Tabs too difficult? Try these video lessons and learn fast
                


iDLEWiLD

Guitar tuned half a step down (Eb, Ab, Db, Gb, Bb, Eb)

Intro Riff
Eb--------------------------------------|
Bb-------------10--------------10---10--|
Gb--7--7--9/11------7--7--9/11----9-----|
Db--------------------------------------|
Ab--------------------------------------|
Eb--------------------------------------| Play x 1

Verse Riff (Guitar 1)
You thought that fire could protect you...
Eb------------------------------0-------0--|
Bb-------------10------------10------10----|
Gb--7--7--9/11------7--9--11------11-------|
Db-----------------------------------------|
Ab-----------------------------------------|
Eb-----------------------------------------| Play x 4

Verse Riff (Guitar 2)
Eb------------------------------------------------------------|
Bb------------------------------------------------------------|
Gb--7-7-7-7-7-7-7---------------------------------------------|
Db--7-7-7-7-7-7-7--2-2-2--5-5-5--7-7-7-7-5-4----2-2-2--5-5-5--|
Ab--5-5-5-5-5-5-5--2-2-2--5-5-5--------------5--2-2-2--5-5-5--|
Eb-----------------0-0-0--3-3-3-----------------0-0-0--3-3-3--| Play x 2

Bridge Riff (Guitar 1)
But actually it's darkness...
Eb-----------------------------------------|------------------------------------------|
Bb-----------------------------------------|------------------------------------------|
Gb-9-9-9-9-9-9-9-x-x-14-14-12-12-11-11-7-7-|-9-9-9-9-9-9-9-9-11-11-11-11-13-13-11-11--|
Db---------------x-x-----------------------|------------------------------------------|
Ab-7-7-7-7-7-7-7-x-x-12-12-10-10-9--9--5-5-|-7-7-7-7-7-7-7-7-9--9--9--9--11-11-9--9---|
Eb-----------------------------------------|------------------------------------------|
   x 3                                       x 1

Bridge Riff (Guitar 2)
Eb--------------------------------|----------------------------------|
Bb--------------------------------|----------------------------------|
Gb--9-9-9-9-9-9-9-9--7-7-7--4-4-4-|-9-9-9-9-9-9-9-9-7-7-7-7-9-9-9-9--|
Db--9-9-9-9-9-9-9-9--7-7-7--4-4-4-|-9-9-9-9-9-9-9-9-7-7-7-7-9-9-9-9--|
Ab--7-7-7-7-7-7-7-7--5-5-5--2-2-2-|-7-7-7-7-7-7-7-7-5-5-5-5-7-7-7-7--|
Eb--------------------------------|----------------------------------|
   x 3                              x 1

Chorus Riff (Guitar 1)
You shed a shade of shyness...
Eb-------------------------------------------|
Bb-------------------------------------------|
Gb--14-14-14-14-11-11-11-11-----7-9-9-9-7-6--|
Db--------------------------7-9--------------|
Ab--12-12-12-12-9--9--9--9------5-7-7-7-5-4--|
Eb--------------------------5-7--------------| Play x 4

Chorus Riff (Guitar 2)
Eb-----------------------------------|
Bb-----------------------------------|
Gb--7-7-7-7-4-4-4-4------------------|
Db--7-7-7-7-4-4-4-4-5-5-5-5-7-7-7-7--|
Ab--5-5-5-5-2-2-2-2-5-5-5-5-7-7-7-7--|
Eb------------------3-3-3-3-5-5-5-5--| Play x 4

Then play Verse Riff (G1 + G2) x 4
Then play Bridge Riff (G1 + G2) x 1
Then play Chorus Riff (G1 + G2) x 4

Break Riff (piano part)
They don't look the same in the photograph...
Eb-----12-14-----15-14--------12-14-----14-12-----|
Bb--15--------15-------15--15--------15-------15--|
Gb------------------------------------------------|

Eb----12-14-----15-14--------12-14--------14-14-12-----|
Bb-15--------15-------15--15--------15-15----------15--|
Gb-----------------------------------------------------|

Then play Chorus Riff (G1 + G2) x 8
End on (slowly bending up):
Gb--7~--|
Db--7~--|
Ab--5~--|
            

comments powered by Disqus
↑ Back to top | Idlewild Tabs for Actually It's Darkness. Lyrics for acoustic guitar and electric guitar. Tablatures and chords are parodies/interpretations of the original songs. You may use it for private study, scholarship, research or language learning purposes only