» » »

Idlewild, 1903-70 Tabs (ver.1)

Artists:  A B C D E F G H I J K L M N O P Q R S T U V W X Y Z # 

1903-70 Tabs (ver.1)

Idlewild Tabs
 Rating:
4/5 (4 votes)
1903-70 lessons Tabs too difficult? Try these video lessons and learn fast
1
                #



THIS IS HOW THE SONG IS PLAYED LIVE.  THE TITLE IS A TRIBUTE TO ARTIST MARK ROTHKO. 
THE RIFF IS VIRTUALLY THE SAME ALL THE WAY THROUGH.  ITS BASICALLY THE CHORDS C AND G WHILST YOU PUT YOUR LITTLE FINGER ON AND OFF THE FRETBOARD WHILE STRUMMUNG ALONG.  
      
1903              -    		70  
		
        C	

E----0-----0-----0--0-----0----------0----0----
B----1-----1-----3--3-----1----------1----1----
G----0-----0-----0--0-----0----------0----0----
D----2-----2-----2--2-----2----------2----2----
A----3-----3-----3--3-----3----------3----3----
E----------------------------------------------

			I CAME FROM NOWHERE
			
E-0--0-----0------0---0-----0-0------0------0----
B-3--3-----1------1---1-----3-3------1------1----
G-0--0-----0------0---0-----0-0------0------0----
D-2--2-----2------2---2-----2-2------2------2----
A-3--3-----3------3---3-----3-3------3------3----
E------------------------------------------------

I FELL FROM               NOWHERE

			       F	

E-0--0----0--0----0----------1----1-----3---3-----1----
B-3--1----3--3----1----------1----1-----1---1-----1----
G-0--0----0- 0----0----------2----2-----2---2-----2----
D-2--2----2--2----2----------1----1-----1---1-----1----
A-3--3----3--3----3----------3----3-----3---3-----3----
E----------------------------1----1-----1---1-----1----


BUT ALL HE HAD WERE HIS GOOD LOOKS


E--1----3---1-----3----3------1---------0----0------------
B--1----1---1-----1----1------1---------1----1-------
G--2----2---2-----2----2------2---------0----0-------------D--1----1---1-----1----1------1---------2----2----------
A--3----3---3-----3----3------3---------3----3----------
E--1----1---1-----1----1------1----------------------


E---0--0----0-----0----0---0-----0--0-----0------
B---3--3----1-----1----3---1-----3--3-----1-----REPEAT--
G---0--0----0-----0----0---0-----0--0-----0-------
D---2--2----2-----2----2---2-----2--2-----2------
A---3--3----3-----3----3---3-----3--3-----3------
E-------------------------------------------------


CHORUS
	     I’M ON REAL	          GROUND 
	G				     F
E-------3----3-----3-------3------3----------1-----
B-------3----3-----3-------3------3----------1-----
G-------4----4-----4-------4------4----------2-----
D-------5----5-----5-------5------5----------3-----
A-------5----5-----5-------5------5----------3------
E-------3----3-----3------3-------3----------1-----


		I     FORGOT TO WALK-						
				   C	
E-1---1------1------1--------------0----0----0--0------0--
B-1---1------1------1--------------1----1----3--3------1-
G-2---2------2------2--------------0----0----0--0------0--
D-3---3------3------3--------------2----2----2--2------2--
A-3---3------3------3--------------3----3----3--3------3--
E-1---1------1------1---------------------------------

AWAY

E---0----0----0------0----0----0---------------------
B---1----3----1------3----3----1---------REPEAT------
G---0----0----0------0----0----0---------------------
D---2----2----2------2----2----2---------------------
A---3----3----3------3----3----3---------------------
E----------------------------------------------------





LYRICS

1903  THROUGH 70  HE CAME FROM NOWHERE I FELL FROM NOWHERE, BUT ALL HE HAD WERE HIS GOOD LOOKS (REPEAT)

CHORUS
I’M ON REAL GROUND, FLOAT, FLOAT, FLOAT AWAY 
I’M ON REAL GROUND, I FORGET TO WALKAWAY


1903 TO 70  
HE CAME FROM NOWHERE WE FELL FROM NOWHERE BUT ALL HE HAD WERE HIS GOOD LOOKS (REPEAT)

CHORUS
I’M ON REAL GROUND, FLOAT, FLOAT, FLOAT AWAY
I’M ON REAL GROUND, I PREFER TO WALKAWAY
            
Submit corrections

comments powered by Disqus
↑ Back to top | Idlewild Tabs for 1903-70. Lyrics for acoustic guitar and electric guitar. 1 Tablatures and chords are parodies/interpretations of the original songs. You may use it for private study, scholarship, research or language learning purposes only