» » »

Idiot Pilot, To Buy A Gun Tabs (ver.2)

Artists:  A B C D E F G H I J K L M N O P Q R S T U V W X Y Z # 

To Buy A Gun Tabs (ver.2)

Idiot Pilot Tabs
 Rating:
4.6/5 (9 votes)
To Buy A Gun lessons Tabs too difficult? Try these video lessons and learn fast
1
                Idiot Pilot--To Buy A Gun



intro/verse 

E|---------------------------------------------------|
B|---------------------------------------------------|
G|-12-------11--------9--------8---------------------|
D|-x---(x4)-x----(x4)-x---(x4)-x---(x4)--------------|
A|-10-------9---------7--------6---------------------|
E|-0--------0---------5--------7---------------------|


Chorus (pt.1)

E|-------------------------------------------------|
B|-------------------------------------------------|
G|-9-99-9-88-88------------------------------------|
D|-9-99-9-99-99--77777777--99999999----------------|
A|-7-77-7-66-66--77777777--99999999----------------|
E|-0-00-0-00-00--55555555--77777777----------------|

E|-------------------------------------------------|
B|-------------------------------------------------|
G|-9-99-9-88-88------------------------------------|
D|-9-99-9-99-99--77777777--33333333----------------|
A|-7-77-7-66-66--77777777--33333333----------------|
E|-0-00-0-00-00--55555555--11111111----------------|

chorus (pt.2)

E|---------------------------------------------|
B|---------------------------------------------|
G|---7-----7-----------------------------------|
D|---7-----7-----------------------------------|
A|-0-7---0-7----(x4)---------------------------|
E|-0-----0-------------------------------------|

bridge

E|---0---0---0---0---0---0---0---0---0---------|
B|-9---9---9---9---10--10--10--10--10----------|
G|---------------------------------------------|
D|---------------------------------------------|
A|---------------------------------------------|
E|---------------------------------------------|

E|---0---0---0---0---0---0---0---0-------------|
B|-12--12--12--12--10--10--10--10--------------|
G|---------------------------------------------|
D|---------------------------------------------|
A|---------------------------------------------|
E|---------------------------------------------|

Happy Tabbing pps!
            
Submit corrections

comments powered by Disqus
↑ Back to top | Idiot Pilot Tabs for To Buy A Gun. Lyrics for acoustic guitar and electric guitar. 1 Tablatures and chords are parodies/interpretations of the original songs. You may use it for private study, scholarship, research or language learning purposes only