» » »

Retina And The Sky Bass tabs (ver.1)

Artists:  A B C D E F G H I J K L M N O P Q R S T U V W X Y Z # 

Retina And The Sky Bass tabs (ver.1)

Idiot Pilot
Rating:
0/5 (0 votes)

Hard to play? Try these video lessons and learn fast.
                This is a very simple and cool song to play. You may have heard it on transformers movie. 
The tuning is Drop D. Work out the timing in the intro/chorus and the outro.


|Intro/Chorus|
G|--------------------------------------------------------------|
D|--------------------------------------------------------------|
A|--------------------------------------------------------------|
D|5-5-5-5-5-0-0-0-0-0-0-0-9-9-9-9-9-7-7-7-7-7-7-7---------------| 


|Verse|
G|--------------------------------------------------------------|
D|--------------------------------------------------------------|
A|--------------------------7-5-7-------------------------7-5-7-|
D|9-9-9-9-9-9-9-9-9-9-9-9-9-------7-7-7-7-7-7-7-7-7-7-7-7-------|

G|--------------------------------------------------------------|
D|--------------------------------------------------------------|
A|--------------------------------------------------------7-7-7-|
D|5-5-5-5-5-5-5-5-5-5-5-5-5-5-5-5-4-4-4-4-4-4-4-4-4-4-4-4-------|


|Bridge|
G|--------------------------------------------------------------|
D|--------------------------------------------------------------|
A|--------------------------------------------------------------|
D|9-9-9-9-9-9-9-9-9-9-9-9-9-9-9-9-7-7-7-7-7-7-7-7-7-7-7-7-7-7-7-|

G|--------------------------------------------------------------|
D|--------------------------------------------------------------|
A|--------------------------------------------------------------|
D|5-5-5-5-5-5-5-5-5-5-5-5-5-5-5-5-4-4-4-4-4-4-4-0-0-0-0-0-0-0-0-|


|Outro|
G|--------------------------------------------------------------|
D|--------------------------------------------------------------|
A|--------------------------------------------------------------|
D|5-5-5-5-5-0-0-0-0-0-0-0-9-9-9-9-9-7-7-7-7-7-7-7---------------| 

G|--------------------------------------------------------------|
D|--------------------------------------------------------------|
A|--------------------------------------------------------------|
D|5-5-5-5-5-0-0-0-0-0-0-0-9-9-9-9-9-7-7-7-7-7-7-7---------------| 

G|--------------------------------------------------------------|
D|--------------------------------------------------------------|
A|--------------------------------------------------------------|
D|5-5-5-5-5-0-0-0-0-0-0-0-9-9-9-9-9-7-7-7-7-7-7-7---------------| 

G|--------------------------------------------------------------|
D|--------------------------------------------------------------|
A|--------------------------------------------------------------|
D|5-5-5-5-5-0-0-0-0-0-0-0-5-5-5-5-5-0-0-0-0-0-0-0---------------| 

G|--------------------------------------------------------------|
D|--------------------------------------------------------------|
A|--------------------------------------------------------------|
D|5-5-5-5-5-0-0-0-0-0-0-0-9-9-9-9-9-7-7-7-7-7-7-7---------------| 

G|--------------------------------------------------------------|
D|--------------------------------------------------------------|
A|--------------------------------------------------------------|
D|5-5-5-5-5-0-0-0-0-0-0-0-9-9-9-9-9-7-7-7-7-7-7-7---------------| 

G|--------------------------------------------------------------|
D|--------------------------------------------------------------|
A|--------------------------------------------------------------|
D|5-5-5-5-5-0-0-0-0-0-0-0-9-9-9-9-9-7-7-7-7-7-7-7-5~~~~~~~~~----| 

|ORDER|

Intro/Chorus x4
Verse        x3
Intro/Chorus x4
Verse        x3
Intro/Chorus x4
Bridge       x2
Outro        x1


*******
*NOTES*: Remember that the Bridge sounds funny in the song because they have
*******  lots of synth pad sounds. That makes a diffrent sound but the bass 
         is like that. Also, work out the timings in the Intro, Chorus and 
         the outro. Remember that the fourth time in every change from
         chorus to verse (or the bridge) you only play until the open 
         note.Please rate and comment. Its my first bass tab.
            
Hard to play? Try these video lessons and learn fast. | Correct




comments powered by Disqus
↑ Back to top | Tablatures and chords are parodies/interpretations of the original songs. You may use it for private study, scholarship, research or language learning purposes only