» » »

Idiot Pilot, Open Register Tabs (ver.1)

Artists:  A B C D E F G H I J K L M N O P Q R S T U V W X Y Z # 

Open Register Tabs (ver.1)

Idiot Pilot Tabs
Rating:
4/5 (1 vote)
Open Register lessons Tabs too difficult? Try these video lessons and learn fast
                -------------------------------------------------------------------------------
-------------------------------------------------------------------------------

Tuning:EADGBE



Intro/Verse - Please Don`t Love Too Soon...

e|--0-0-0-0-0-0-0-0-0-0-0-0-1-1-1-1--|----|
B|--1-1-1-1-1-1-1-1-1-1-1-1-2-2-2-2--|----|
G|--0-0-0-0-0-0-0-0-0-0-0-0-2-2-2-2--|----|
D|--2-2-2-2-2-2-2-2-2-2-2-2-3-3-3-3--|-x8-|
A|--3-3-3-3-3-3-3-3-2-2-2-2-3-3-3-3--|----|
E|--------------------------1-1-1-1--|----|




PreChorus - No Lyrics (Chords Underneath)

e|-----3--0--3-----3--0--3-----3--0--3-----5--0--3--|----|
B|--1-----------1-----------1-----------1-----------|----|
G|--------------------------------------------------|----|
D|--------------------------------------------------|-x4-|
A|--F-----------C-----------Am----------Am----------|----|
E|--------------------------------------------------|----|



Chorus - We`re Trying To Help You...

e|--0-0-0-0-0-0-0-0-6-6-6-6-1-1-1-1--|----|
B|--1-1-1-1-1-1-1-1-6-6-6-6-1-1-1-1--|----|
G|--0-0-0-0-0-0-0-0-7-7-7-7-4-4-4-4--|----|
D|--2-2-2-2-2-2-2-2-8-8-8-8-5-5-5-5--|-x4-|
A|--3-3-3-3-2-2-2-2-8-8-8-8-3-3-3-3--|----|
E|------------------6-6-6-6-1-1-1-1--|----|



Verse - Please Don`t Love Too Soon...

e|--0-0-0-0-0-0-0-0-0-0-0-0-1-1-1-1--|----|
B|--1-1-1-1-1-1-1-1-1-1-1-1-2-2-2-2--|----|
G|--0-0-0-0-0-0-0-0-0-0-0-0-2-2-2-2--|----|
D|--2-2-2-2-2-2-2-2-2-2-2-2-3-3-3-3--|-x8-|
A|--3-3-3-3-3-3-3-3-2-2-2-2-3-3-3-3--|----|
E|--------------------------1-1-1-1--|----|




PreChorus - No Lyrics (Chords Underneath)

e|-----3--0--3-----3--0--3-----3--0--3-----5--0--3--|----|
B|--1-----------1-----------1-----------1-----------|----|
G|--------------------------------------------------|----|
D|--------------------------------------------------|-x4-|
A|--F-----------C-----------Am----------Am----------|----|
E|--------------------------------------------------|----|



Chorus - We`re Trying To Help You...

e|--0-0-0-0-0-0-0-0-6-6-6-6-1-1-1-1--|----|
B|--1-1-1-1-1-1-1-1-6-6-6-6-1-1-1-1--|----|
G|--0-0-0-0-0-0-0-0-7-7-7-7-4-4-4-4--|----|
D|--2-2-2-2-2-2-2-2-8-8-8-8-5-5-5-5--|-x4-|
A|--3-3-3-3-2-2-2-2-8-8-8-8-3-3-3-3--|----|
E|------------------6-6-6-6-1-1-1-1--|----|



Interlude - You, Want, To...

e|-1-1-----1-1-----1-1-----1-1---6-6-6-6-6-6-6-6---0-0-0-0-0-0-0-0--|----|
B|-1-1-----1-1-----1-1-----1-1---6-6-6-6-6-6-6-6---1-1-1-1-1-1-1-1--|----|
G|-2-2-----2-2-----2-2-----2-2---7-7-7-7-7-7-7-7---0-0-0-0-0-0-0-0--|----|
D|-3-3-----3-3-----3-3-----3-3---8-8-8-8-8-8-8-8---2-2-2-2-2-2-2-2--|-x2-|
A|-3-3-----3-3-----3-3-----3-3---8-8-8-8-8-8-8-8---3-3-3-3-3-3-3-3--|----|
E|-1-1-----1-1-----1-1-----1-1---6-6-6-6-6-6-6-6--------------------|----|



PreChorus - No Lyrics (Chords Underneath)

e|-----3--0--3-----3--0--3-----3--0--3-----5--0--3--|----|
B|--1-----------1-----------1-----------1-----------|----|
G|--------------------------------------------------|----|
D|--------------------------------------------------|-x4-|
A|--F-----------C-----------Am----------Am----------|----|
E|--------------------------------------------------|----|



Chorus - We`re Trying To Help You...

e|--0-0-0-0-0-0-0-0-6-6-6-6-1-1-1-1--|-----------------|
B|--1-1-1-1-1-1-1-1-6-6-6-6-1-1-1-1--|-----------------|
G|--0-0-0-0-0-0-0-0-7-7-7-7-4-4-4-4--|-----------------|
D|--2-2-2-2-2-2-2-2-8-8-8-8-5-5-5-5--|-repeat-till-end-|
A|--3-3-3-3-2-2-2-2-8-8-8-8-3-3-3-3--|-----------------|
E|------------------6-6-6-6-1-1-1-1--|-----------------|

| /  slide up
| \  slide down
| h  hammer-on
| p  pull-off
| ~  vibrato
| +  harmonic
| x  Mute note
===============================================================================
            
Submit corrections

comments powered by Disqus
↑ Back to top | Idiot Pilot Tabs for Open Register. Lyrics for acoustic guitar and electric guitar. Tablatures and chords are parodies/interpretations of the original songs. You may use it for private study, scholarship, research or language learning purposes only