» » »

Idiot Pilot, Last Chance Tabs (ver.1)

Artists:  A B C D E F G H I J K L M N O P Q R S T U V W X Y Z # 

Last Chance Tabs (ver.1)

Idiot Pilot Tabs
Rating:
5/5 (2 votes)
Last Chance lessons Tabs too difficult? Try these video lessons and learn fast
                -------------------------------------------------------------------------------
			     Last Chance (acoustic) - Idiot Pilot
-------------------------------------------------------------------------------

Tuning: Drop D - e B G D A D
							         There
e|-------2---------------2---------------2---------------2-------------------|
B|-----------3---------------3---------------3---------------3---------------|
G|---------------0---------------0---------------0---------------0-----------|
D|---------------------------------------------------------------------------|
A|---------------------------------------------------------------------------|
E|---0---------------0---------------0---------------0-----------------------|

     has                to              be   good        in   
e|-------2---------------2---------------2---------------2-------------------|
B|-----------3---------------3---------------3---------------3---------------|
G|---------------0---------------0---------------0---------------0-----------|
D|---------------------------------------------------------------------------|
A|---------------------------------------------------------------------------|
E|---0---------------0---------------0---------------0-----------------------|

     here.
e|-------2---------------2---------------2---------------2-------------------|
B|-----------3---------------3---------------3---------------3---------------|
G|---------------0---------------0---------------0---------------0-----------|
D|---------------------------------------------------------------------------|
A|---------------------------------------------------------------------------|
E|---5---------------5---------------5---------------5-----------------------|


e|-------2---------------2---------------2---------------2-------------------|
B|-----------3---------------3---------------3---------------3---------------|
G|---------------0---------------0---------------0---------------0-----------|
D|---------------------------------------------------------------------------|
A|---------------------------------------------------------------------------|
E|---5---------------5---------------5---------------5-----------------------|
 
			 Have   all                 things   
e|-------2---------------2---------------2---------------2-------------------|
B|-----------3---------------3---------------3---------------3---------------|
G|---------------0---------------0---------------0---------------0-----------|
D|---------------------------------------------------------------------------|
A|---------------------------------------------------------------------------|
E|---0---------------0---------------0---------------0-----------------------|

     gold                turned                      souvenir?
e|-------2---------------2---------------2---------------2-------------------|
B|-----------3---------------3---------------3---------------3---------------|
G|---------------0---------------0---------------0---------------0-----------|
D|---------------------------------------------------------------------------|
A|---------------------------------------------------------------------------|
E|---0---------------0---------------0---------------0-----------------------|


e|-------2---------------2---------------2---------------2-------------------|
B|-----------3---------------3---------------3---------------3---------------|
G|---------------0---------------0---------------0---------------0-----------|
D|---------------------------------------------------------------------------|
A|---------------------------------------------------------------------------|
E|---5---------------5---------------5---------------5-----------------------|


e|-------2---------------2---------------2---------------2-------------------|
B|-----------3---------------3---------------3---------------3---------------|
G|---------------0---------------0---------------0---------------0-----------|
D|---------------------------------------------------------------------------|
A|---------------------------------------------------------------------------|
E|---5---------------5---------------5---------------5-----------------------|

                                     What  was  that  you 
e|-------0---------------0---------------0---------------0-------------------|
B|-----------3---------------3---------------3---------------3---------------|
G|---------------0---------------0---------------0---------------0-----------|
D|---------------------------------------------------------------------------|
A|---2---------------2---------------2---------------2-----------------------|
E|---------------------------------------------------------------------------|

     said?
e|-------0---------------0---------------0---------------0-------------------|
B|-----------3---------------3---------------3---------------3---------------|
G|---------------0---------------0---------------0---------------0-----------|
D|---------------------------------------------------------------------------|
A|---2---------------2---------------2---------------2-----------------------|
E|---------------------------------------------------------------------------|

                                     All       the  
e|-------0---------------0---------------0---------------0-------------------|
B|-----------3---------------3---------------3---------------3---------------|
G|---------------0---------------0---------------0---------------0-----------|
D|---------------------------------------------------------------------------|
A|---0---------------0---------------0---------------0-----------------------|
E|---------------------------------------------------------------------------|

    things           we             love
e|-------0---------------0---------------0---------------0-------------------|
B|-----------3---------------3---------------3---------------3---------------|
G|---------------0---------------0---------------0---------------0-----------|
D|---------------------------------------------------------------------------|
A|---0---------------0---------------0---------------0-----------------------|
E|---------------------------------------------------------------------------|

                       we            hate   
e|-------2---------------2---------------2---------------2-------------------|
B|-----------3---------------3---------------3---------------3---------------|
G|---------------0---------------0---------------0---------------0-----------|
D|---------------------------------------------------------------------------|
A|---------------------------------------------------------------------------|
E|---0---------------0---------------0---------------0-----------------------|

     instead.
e|-------2---------------2---------------2---------------2-------------------|
B|-----------3---------------3---------------3---------------3---------------|
G|---------------0---------------0---------------0---------------0-----------|
D|---------------------------------------------------------------------------|
A|---------------------------------------------------------------------------|
E|---5---------------5---------------5---------------5-----------------------|


e|-------2---------------2---------------2---------------2-------------------|
B|-----------3---------------3---------------3---------------3---------------|
G|---------------0---------------0---------------0---------------0-----------|
D|---------------------------------------------------------------------------|
A|---------------------------------------------------------------------------|
E|---0---------------0---------------0---------------0-----------------------|


e|-------2---------------2---------------2---------------2-------------------|
B|-----------3---------------3---------------3---------------3---------------|
G|---------------0---------------0---------------0---------------0-----------|
D|---------------------------------------------------------------------------|
A|---------------------------------------------------------------------------|
E|---5---------------5---------------5---------------5-----------------------|

                     Last            chance          as
e|-------2---------------2---------------2---------------2-------------------|
B|-----------3---------------3---------------3---------------3---------------|
G|---------------0---------------0---------------0---------------0-----------|
D|---------------------------------------------------------------------------|
A|---------------------------------------------------------------------------|
E|---0---------------0---------------0---------------0-----------------------|

     if   we         could           hurt.
e|-------2---------------2---------------2---------------2-------------------|
B|-----------3---------------3---------------3---------------3---------------|
G|---------------0---------------0---------------0---------------0-----------|
D|---------------------------------------------------------------------------|
A|---------------------------------------------------------------------------|
E|---5---------------5---------------5---------------5-----------------------|

     Too   much      to be           first.                   The first
e|-------2---------------2---------------2---------------2-------------------|
B|-----------3---------------3---------------3---------------3---------------|
G|---------------0---------------0---------------0---------------0-----------|
D|---------------------------------------------------------------------------|
A|---2---------------2---------------2---------------2-----------------------|
E|---------------------------------------------------------------------------|

     to              admit           the             lie.
e|-------2---------------2---------------2---------------2-------------------|
B|-----------3---------------3---------------3---------------3---------------|
G|---------------0---------------0---------------0---------------0-----------|
D|---------------------------------------------------------------------------|
A|---1---------------1---------------0---------------0-----------------------|
E|---------------------------------------------------------------------------|

                     We              are             all
e|-------2---------------2---------------2---------------2-------------------|
B|-----------3---------------3---------------3---------------3---------------|
G|---------------0---------------0---------------0---------------0-----------|
D|---------------------------------------------------------------------------|
A|---------------------------------------------------------------------------|
E|---0---------------0---------------0---------------0-----------------------|

     put  here       on              earth.
e|-------2---------------2---------------2---------------2-------------------|
B|-----------3---------------3---------------3---------------3---------------|
G|---------------0---------------0---------------0---------------0-----------|
D|---------------------------------------------------------------------------|
A|---------------------------------------------------------------------------|
E|---5---------------5---------------5---------------5-----------------------|

         But  what   we  deserve                                 is
e|-------2---------------2---------------2---------------2-------------------|
B|-----------3---------------3---------------3---------------3---------------|
G|---------------0---------------0---------------0---------------0-----------|
D|---------------------------------------------------------------------------|
A|---2---------------2---------------2---------------2-----------------------|
E|---------------------------------------------------------------------------|

     to  be          buried                          alive.
e|-------2---------------2---------------2---------------2-------------------|
B|-----------3---------------3---------------3---------------3---------------|
G|---------------0---------------0---------------0---------------0-----------|
D|---------------------------------------------------------------------------|
A|---1---------------1---------------0---------------0-----------------------|
E|---------------------------------------------------------------------------|


I'm riding on a fence and happy with
I'm counting on an indifference
But if I had to choose
Well it all looks pretty good to me

Last chance as if it could hurt
Too much to be first
The first admit the lie
We are all put here on earth
So we could be first
The first to be in the sky 


Bridge and the rest of the song.
e|-------5---------------5---------------7---------------7-------------------|
B|-----------3---------------3---------------3---------------3---------------|
G|---------------0---------------0---------------0---------------0-----------|
D|---------------------------------------------------------------------------|
A|-----------------------------------0---------------0-----------------------|
E|---5---------------5-------------------------------------------------------|

e|-------9---------------9---------------14--------------14------------------|
B|-----------10--------------10--------------15--------------15--------------|
G|---------------0---------------0---------------0---------------0-----------|
D|-----------------------------------0---------------0-----------------------|
A|---------------------------------------------------------------------------|
E|---9---------------9-------------------------------------------------------|



===============================================================================
            
Submit corrections

comments powered by Disqus
↑ Back to top | Idiot Pilot Tabs for Last Chance. Lyrics for acoustic guitar and electric guitar. Tablatures and chords are parodies/interpretations of the original songs. You may use it for private study, scholarship, research or language learning purposes only