>
 >
Through The Eyes Of The Killer

Through The Eyes Of The Killer Guitar Tabs

I Declare War - Through The Eyes Of The Killer chords, tabs, tablatures, lyrics

Guitar lessons | Add/correct | Request | Top 50 tabs Artists:  A B C D E F G H I J K L M N O P Q R S T U V W X Y Z 0-9

Through The Eyes Of The Killer Guitar Tabs – I Declare War

CD, Sheet music, Poster

Do you like Through The Eyes Of The Killer? Share with your friends now
Tabs
                         THROUGH THE EYES OF THE KILLER
                          As recorded by I Declare War
                   (From the 2007 Album AMIDST THE BLOODSHED)

Words and Music by I Declare War
Arranged by I Declare War

Gtr I (A# F A# D# G C) - 'Jake Paulson'
Gtr II (A# F A# D# G C) - 'Evan Hughes'

 Intro
  Q=175
 4/4
  Gtrs I, II
  PM--|   PM  PM   PM    PM  PM  PM
|--------------------|-------------------|
|--------------------|-------------------|
|--------------------|-------------------|
|--------------------|-------------------|
|-------8---7---10---|-8---7---8---7h8p7-|
|-0-0-0---0---0----0-|---0---0---0-------|


  PM--|   PM  PM       PM---|        PM---|   ~~~
|-------------------|-----------------------------|
|-------------------|-----------------------------|
|-------------------|-----------------------------|
|-------------------|-----------------------------|
|-------7---8---7-8-|----------8-10----------[8]--|
|-8-8-8---8---8-----|-10-10-10------10-10-10------|


  PM--| TP TP  TP   TP TP TP
|-----------------|----------------|
|-----------------|----------------|
|-----------------|----------------|
|-----------------|----------------|
|-------8--7--10--|-8--7--8--7h8p7-|
|-0-0-0-----------|----------------|


  PM--|   PM  PM       PM---|        PM---|   ~~~
|-------------------|----------------------------|
|-------------------|----------------------------|
|-------------------|----------------------------|
|-------------------|----------------------------|
|-------7---8---7-8-|----------8-10----------[8]-|
|-8-8-8---8---8-----|-10-10-10------10-10-10-----|


  Gtr I
  PM--|    PM   PM   PM     PM   PM   PM
|----------------------|-------------------------|
|----------------------|-------------------------|
|----------------------|-------------------------|
|----------------------|-------------------------|
|--------8----7---10---|--8----7----8----7h=8p=7-|
|-0-0-0----0----0----0-|----0----0----0----------|
|
| Gtr II
| PM--|    PM   PM   PM     PM   PM   PM
|----------------------|-------------------------|
|----------------------|-------------------------|
|----------------------|-------------------------|
|----------------------|-------------------------|
|-------12---10---13---|-12---10---12---10h12p10-|
|-0-0-0----0----0----0-|----0----0----0----------|


  PM--|    PM   PM         PM---|         PM---|    ~~~~
|-----------------------|--------------------------------|
|-----------------------|--------------------------------|
|-----------------------|--------------------------------|
|-----------------------|--------------------------------|
|--------7----8----7--8-|-----------8-10-----------[8]---|
|-8-8-8----8----8-------|-10-10-10-------10-10-10--------|
|
| PM--|    PM   PM         PM---|         PM---|    ~~~~
|-----------------------|--------------------------------|
|-----------------------|--------------------------------|
|-----------------------|--------------------------------|
|-----------------------|--------------------------------|
|-------10---12---10-12-|----------12-13----------[12]---|
|-8-8-8----8----8-------|-10-10-10-------10-10-10--------|


  PM--|  TP  TP  TP    TP  TP  TP
|-------------------|----------------------|
|-------------------|----------------------|
|-------------------|----------------------|
|-------------------|----------------------|
|--------8---7--10--|--8---7---8---7h=8p=7-|
|-0-0-0-------------|----------------------|
|
| PM--|  TP  TP  TP    TP  TP  TP
|-------------------|----------------------|
|-------------------|----------------------|
|-------------------|----------------------|
|-------------------|----------------------|
|-------12--10--13--|-12--10--12--10h12p10-|
|-0-0-0-------------|----------------------|


  PM--|    PM   PM         PM---|         PM---|    ~~~~
|-----------------------|--------------------------------|
|-----------------------|--------------------------------|
|-----------------------|--------------------------------|
|-----------------------|--------------------------------|
|--------7----8----7--8-|-----------8-10-----------[8]---|
|-8-8-8----8----8-------|-10-10-10-------10-10-10--------|
|
| PM--|    PM   PM         PM---|         PM---|    ~~~~
|-----------------------|--------------------------------|
|-----------------------|--------------------------------|
|-----------------------|--------------------------------|
|-----------------------|--------------------------------|
|-------10---12---10-12-|----------12-13----------[12]---|
|-8-8-8----8----8-------|-10-10-10-------10-10-10--------|


  Gtr I
  PM------------------------------------------------------------------|
|----------------|-----------------|-----------------|-------------------------|
|----------------|-----------------|-----------------|-------------------------|
|----------------|-----------------|-----------------|-------------------------|
|----------------|-----------------|-----------------|-------------------------|
|-0------0-0-0-0-|-0--0-0-0-0-0----|---0-(0)-0-0-0-0-|-(0)--0-0-0-0-0---12S====|
|-0------0-0-0-0-|-0--0-0-0-0-0----|---0-(0)-0-0-0-0-|-(0)--0-0-0-0-0---12S====|


    Gtrs I, II
    PM------------------------------------------------------------------|
||-----------------|-----------------|-----------------|---------------------||
||o----------------|-----------------|-----------------|--------------------o||
||-----------------|-----------------|-----------------|---------------------||
||-----------------|-----------------|-----------------|---------------------||
||o-0------0-0-0-0-|-0--0-0-0-0-0----|---0-(0)-0-0-0-0-|-(0)--0-0-0-0-0-----o||
||--0------0-0-0-0-|-0--0-0-0-0-0----|---0-(0)-0-0-0-0-|-(0)--0-0-0-0-0------||


             PM--------|              PM--|
|----------|-------------|----------|------------|
|----------|-------------|----------|------------|
|----------|-------------|----------|------------|
|----------|-------------|----------|------------|
|-8--------|-8-7-0-8-7-0-|-7--------|-7-5-0-7----|
|-8--------|-8-7-0-8-7-0-|-7--------|-7-5-0-7----|


  PM------------------------------------------------------------------|
|----------------|-----------------|-----------------|--------------------|
|----------------|-----------------|-----------------|--------------------|
|----------------|-----------------|-----------------|--------------------|
|----------------|-----------------|-----------------|--------------------|
|-0------0-0-0-0-|-0--0-0-0-0-0----|---0-(0)-0-0-0-0-|-(0)--0-0-0-0-0-----|
|-0------0-0-0-0-|-0--0-0-0-0-0----|---0-(0)-0-0-0-0-|-(0)--0-0-0-0-0-----|


  PM---------------------------------------------------|
|----------------|-----------------|-----------------|-------------|
|----------------|-----------------|-----------------|-------------|
|----------------|-----------------|-----------------|-------------|
|----------------|-----------------|-----------------|-------------|
|-0------0-0-0-0-|-0--0-0-0-0-0----|---0-(0)-0-0-0-0-|-(0)---------|
|-0------0-0-0-0-|-0--0-0-0-0-0----|---0-(0)-0-0-0-0-|-(0)---------|


  PM--------------------------------------------------
|-------------------------|--------------------------|
|-------------------------|--------------------------|
|-------------------------|--------------------------|
|-------------------------|--------------------------|
|-0-(0)-(0)--(0)--0-0-0-0-|-0-(0)-0-0-0-0-0-(0)-(0)--|
|-1-(1)-(1)--(1)--1-1-1-1-|-1-(1)-1-1-1-1-1-(1)-(1)--|


 -------------------------------------------|
|-----------------------|--------------------------|
|-----------------------|--------------------------|
|-----------------------|--------------------------|
|-----------------------|--------------------------|
|-(0)-(0)-0-(0)-0-0-0-0-|-(0)-(0)-0-0-0-0-0-(0)----|
|-(1)-(1)-1-(1)-1-1-1-1-|-(1)-(1)-1-1-1-1-1-(1)----|


  PM------------------------------------------------------------------|
|----------------|-----------------|-----------------|--------------------|
|----------------|-----------------|-----------------|--------------------|
|----------------|-----------------|-----------------|--------------------|
|----------------|-----------------|-----------------|--------------------|
|-0------0-0-0-0-|-0--0-0-0-0-0----|---0-(0)-0-0-0-0-|-(0)--0-0-0-0-0-----|
|-0------0-0-0-0-|-0--0-0-0-0-0----|---0-(0)-0-0-0-0-|-(0)--0-0-0-0-0-----|


             PM--------|              PM--|
|----------|-------------|----------|----------------------|
|----------|-------------|----------|----------------------|
|----------|-------------|----------|----------------------|
|----------|-------------|----------|----------------------|
|-8--------|-8-7-0-8-7-0-|-7--------|-7-5-0----------------|
|-8--------|-8-7-0-8-7-0-|-7--------|-7-5-0-[7]b9--([7])---|


       PM----------------------|
||-------------------|----------------------|
||o------------------|----------------------|
||-------------------|----------------------|
||-------------------|----------------------|
||o-0--0-0-0-0-0-0-0-|-0-0-0-0-0-7h8p7----8-|
||--0--0-0-0-0-0-0-0-|-0-0-0-0-0-------10-8-|


      PM      PM----|           PM        PM--|
|-----------------------|-----------------------|
|-----------------------|-----------------------|
|-----------------------|-----------------------|
|-----------------------|-----------------------|
|-(8)-8-8-(8)-8-8-8-8-5-|-(5)-5-5-7-(7)-7-7-7-7-|
|-(8)-8-8-(8)-8-8-8-8-5-|-(5)-5-5-7-(7)-7-7-7-7-|


  1.
     PM----------------------|
|------------------|----------------------|
|------------------|----------------------|
|------------------|----------------------|
|------------------|----------------------|
|-0--0-0-0-0-0-0-0-|-0-0-0-0-0-7h8p7----8-|
|-0--0-0-0-0-0-0-0-|-0-0-0-0-0-------10-8-|


              PM----|
|------------------------|--------------------||
|------------------------|-------------------o||
|---------------------12-|-12-10-10-9-9-5-5---||
|------------------------|--------------------||
|-(8)-8-8-(8)-8-8-8-8-10-|-10--8--8-7-7-3-3--o||
|-(8)-8-8-(8)-8-8-8-8----|--------------------||


  2.
  Gtr I
     PM----------------------|
|------------------|-------------------------|
|------------------|-------------------------|
|------------------|-------------------------|
|------------------|-------------------------|
|-0--0-0-0-0-0-0-0-|-0-0-0-0-0--7h=8p=7----8-|
|-0--0-0-0-0-0-0-0-|-0-0-0-0-0----------10-8-|
|
| Gtr II
|    PM----------------------|
|------------------|-------------------------|
|------------------|-------------------------|
|------------------|-------------------------|
|------------------|-------------------------|
|-0--0-0-0-0-0-0-0-|-0-0-0-0-0-10h12p10----8-|
|-0--0-0-0-0-0-0-0-|-0-0-0-0-0----------14-8-|


              PM----|
|------------------------|---------------------|
|------------------------|---------------------|
|---------------------12-|-12-10-10--9--9-5-5--|
|------------------------|---------------------|
|-(8)-8-8-(8)-8-8-8-8-10-|-10--8--8--7--7-3-3--|
|-(8)-8-8-(8)-8-8-8-8----|---------------------|
|
|             PM----|
|------------------------|---------------------|
|------------------------|---------------------|
|---------------------15-|-15-14-14-12-12-9-9--|
|------------------------|---------------------|
|-(8)-8-8-(8)-8-8-8-8-13-|-13-12-12-10-10-7-7--|
|-(8)-8-8-(8)-8-8-8-8----|---------------------|


  Q.=125
 12/8
  PM----|      PM----|       PM----|      PM----|
|--------------------------|----------------------------|
|--------------------------|----------------------------|
|---------10-----------9---|---------12-----------10----|
|--------------------------|----------------------------|
|----------8-----------7---|---------10------------8----|
|-0-0-0-0------0-0-0-0-----|-0-0-0-0------0-0-0-0-------|
|
|--------------------------|----------------------------|
|--------------------------|----------------------------|
|--------------------------|----------------------------|
|--------------------------|----------------------------|
|-0------------------------|----------------------12\---|
|-0------------------------|----------------------12\---|


  PM----|     PM----|        PM------|       PM----|
|-------------------------|-------------------------------|
|-------------------------|-------------------------------|
|-------------------------|-------------------------------|
|-------------------------|-------------------------------|
|---------8-----------8---|-------------10-----------7----|
|-8-8-8-8-8---8-8-8-8-8---|-10-10-10-10-10---7-7-7-7-7----|
|
| PM----|     PM----|        PM------|       PM----|
|-------------------------|-------------------------------|
|-------------------------|-------------------------------|
|-------------------------|-------------------------------|
|-------------------------|-------------------------------|
|---------8-----------8---|-------------10-----------7----|
|-8-8-8-8-8---8-8-8-8-8---|-10-10-10-10-10---7-7-7-7-7----|


  PM----|      PM----|       PM----|      PM----|
|--------------------------|---------------------------|
|--------------------------|---------------------------|
|---------10-----------9---|---------12-----------10---|
|--------------------------|---------------------------|
|----------8-----------7---|---------10------------8---|
|-0-0-0-0------0-0-0-0-----|-0-0-0-0------0-0-0-0------|
|
| PM----|      PM----|       PM----|      PM----|
|--------------------------|---------------------------|
|--------------------------|---------------------------|
|---------10-----------9---|---------12-----------10---|
|--------------------------|---------------------------|
|----------8-----------7---|---------10------------8---|
|-0-0-0-0------0-0-0-0-----|-0-0-0-0------0-0-0-0------|


  PM----|     PM----|        PM------|       PM----|
|-------------------------|------------------------------|
|-------------------------|------------------------------|
|-------------------------|------------------------------|
|-------------------------|------------------------------|
|---------8-----------8---|-------------10-----------7---|
|-8-8-8-8-8---8-8-8-8-8---|-10-10-10-10-10---7-7-7-7-7---|
|
| PM----|     PM----|        PM------|       PM----|
|-------------------------|------------------------------|
|-------------------------|------------------------------|
|-------------------------|------------------------------|
|-------------------------|------------------------------|
|---------8-----------8---|-------------10-----------7---|
|-8-8-8-8-8---8-8-8-8-8---|-10-10-10-10-10---7-7-7-7-7---|


  PM----|      PM----|        PM----|      PM----|
|---------------------------|---------------------------|
|---------------------------|---------------------------|
|---------14-----------12---|---------15-----------14---|
|---------------------------|---------------------------|
|---------12-----------10---|---------13-----------12---|
|-0-0-0-0------0-0-0-0------|-0-0-0-0------0-0-0-0------|
|
| PM----|      PM----|        PM----|      PM----|
|---------------------------|---------------------------|
|---------------------------|---------------------------|
|---------10------------9---|---------12-----------10---|
|---------------------------|---------------------------|
|----------8------------7---|---------10------------8---|
|-0-0-0-0------0-0-0-0------|-0-0-0-0------0-0-0-0------|


  PM----|    PM--|   PM--|    PM--|       PM---|     PM--|    PM--|  ~~~
|-----------------------------------|--------------------------------------|
|-----------------------------------|--------------------------------------|
|---------10-------9----------------|-12-----------9-------10-------[9]----|
|--------------------------10-------|--------------------------------------|
|-----------------------------------|--------------------------------------|
|-8-8-8-8----8-8-8---8-8-8----8-8-8-|-----8--8--8----8-8-8----8-8-8--------|
|
| PM----|          PM----|             PM------|            PM----|
|-----------------------------------|--------------------------------------|
|-----------------------------------|--------------------------------------|
|-----------------------------------|--------------------------------------|
|-----------------------------------|--------------------------------------|
|----------8----------------8-------|-------------10-----------------7-----|
|-8-8-8-8--8-------8-8-8-8--8-------|-10-10-10-10-10--------7-7-7-7--7-----|


  PM----|      PM----|        PM----|      PM----|
|---------------------------|---------------------------|
|---------------------------|---------------------------|
|---------14-----------12---|---------15-----------14---|
|---------------------------|---------------------------|
|---------12-----------10---|---------13-----------12---|
|-0-0-0-0------0-0-0-0------|-0-0-0-0------0-0-0-0------|
|
|   PM--|      PM----|        PM----|      PM----|
|---------------------------|---------------------------|
|---------------------------|---------------------------|
|---------10------------9---|---------12-----------10---|
|---------------------------|---------------------------|
|----------8------------7---|---------10------------8---|
|-0-0-0-0------0-0-0-0------|-0-0-0-0------0-0-0-0------|


  PM----|          PM----|             PM------|            PM----|
|-----------------------------------|--------------------------------------|
|-----------------------------------|--------------------------------------|
|-----------------------------------|--------------------------------------|
|-----------------------------------|--------------------------------------|
|----------8----------------8-------|-------------10-----------------7-----|
|-8-8-8-8--8-------8-8-8-8--8-------|-10-10-10-10-10--------7-7-7-7--7-----|
|
| PM----|    PM--|   PM--|    PM--|       PM---|     PM--|    PM--|  ~~~
|-----------------------------------|--------------------------------------|
|-----------------------------------|--------------------------------------|
|---------10-------9----------------|-12-----------9-------10-------[9]----|
|--------------------------10-------|--------------------------------------|
|-----------------------------------|--------------------------------------|
|-8-8-8-8----8-8-8---8-8-8----8-8-8-|-----8--8--8----8-8-8----8-8-8--------|


  Q.=120
 12/8
  PM---------------------------------------------|
|-----------------|-------------|-------------------|-----------------|
|-----------------|-------------|-------------------|-----------------|
|-----------------|-------------|-------------------|-----------------|
|-----------------|-------------|-------------------|-----------------|
|-0-0-0-0---------|-------------|-0-0-0-0--0-0------|-----------------|
|-0-0-0-0---------|-------------|-0-0-0-0--0-0------|----------15\----|
|
| PM---------------------------------------------|
|-----------------|-------------|-------------------|-----------------|
|-----------------|-------------|-------------------|-----------------|
|-----------------|-------------|-------------------|-----------------|
|-----------------|-------------|-------------------|-----------------|
|-0-0-0-0---------|-------------|-0-0-0-0--0-0------|-----------------|
|-0-0-0-0---------|-------------|-0-0-0-0--0-0------|----------12\----|


  PM--|      PM------|        PM|
|----------------------|-----------------|
|-------4--------------|-4--------4------|
|-------7--------------|-7--------7------|
|----------------------|-----------------|
|-0-0-0------0-0-0-0-0-|------0-0--------|
|-0-0-0------0-0-0-0-0-|------0-0--------|


  PM--|      PM------|        PM|
|----------------------|---------------|
|-------4--------------|-4--------4----|
|-------7--------------|-7--------7----|
|----------------------|---------------|
|-0-0-0------0-0-0-0-0-|------0-0------|
|-0-0-0------0-0-0-0-0-|------0-0------|


  Gtrs I, II
  PM--------------------------------------
|----------------------|-----------------|
|----------------------|-----------------|
|----------------------|-----------------|
|----------------------|-----------------|
|-0-0-0-0----0-0-0-0-0-|-0----0-0-0------|
|-1-1-1-1----1-1-1-1-1-|-1----1-1-1------|


 ---------------------------------|
|----------------------|---------------|
|----------------------|---------------|
|----------------------|---------------|
|----------------------|---------------|
|-0-0-0-0----0-0-0-0-0-|-0----0-0-0----|
|-1-1-1-1----1-1-1-1-1-|-1----1-1-1----|


   4/4
    Gtrs I, II
    PM|   PM--|   PM------|   PM--|   PM----|   PM----|   PM  TP TP  TP  ~~~
||------------------|-------------------|-------------------|----------------||
||o-----------------|-------------------|-------------------|---------------o||
||------------------|-------------------|-------------------|----------------||
||------------------|-------------------|-------------------|----------------||
||o-----0-------0---|-------0-------0---|-----0---------0---|-8--7--10--[8]-o||
||--0-0-0-0-0-0-0-0-|-0-0-0-0-0-0-0-0-0-|-0-0-0-0-0-0-0-0-0-|----------------||


    Gtr I
    PM|   PM--|   PM------|   PM--|   PM-
||------------------|-------------------|
||o-----------------|-------------------|
||------------------|-------------------|
||------------------|-------------------|
||o-----0-------0---|-------0-------0---|
||--0-0-0-0-0-0-0-0-|-0-0-0-0-0-0-0-0-0-|
|
|   Gtr II
|   PM|   PM--|   PM------|   PM--|   PM-
||------------------|-------------------|
||o-----------------|-------------------|
||------------------|-------------------|
||------------------|-------------------|
||o-----0-------0---|-------0-------0---|
||--0-0-0-0-0-0-0-0-|-0-0-0-0-0-0-0-0-0-|


 ---|   PM----|   PM   TP  TP  TP   ~~~~
|-------------------|---------------------||
|-------------------|--------------------o||
|-------------------|---------------------||
|-------------------|---------------------||
|-----0---------0---|-12--10--13--[12]---o||
|-0-0-0-0-0-0-0-0-0-|---------------------||
|
|---|   PM----|   PM   TP  TP  TP   ~~~~
|-------------------|---------------------||
|-------------------|--------------------o||
|-------------------|---------------------||
|-------------------|---------------------||
|-----0---------0---|--8---7--10---[8]---o||
|-0-0-0-0-0-0-0-0-0-|---------------------||


    Gtrs I, II
    PM--------------------------------------|   TP TP  TP  ~~~
||---------------|-----------|----------------|------------------||
||o--------------|-----------|----------------|-----------------o||
||---------------|-----------|----------------|------------------||
||---------------|-----------|----------------|------------------||
||o-0-0-0-0-0----|---0-0-----|-0-0-0-0-0--0-0-|-8--7--10--[8]---o||
||--0-0-0-0-0----|---0-0-----|-0-0-0-0-0--0-0-|------------------||


    Gtr I
    PM--------------------------------------|
||---------------|-----------|----------------|
||o--------------|-----------|----------------|
||---------------|-----------|----------------|
||---------------|-----------|----------------|
||o-0-0-0-0-0----|---0-0-----|-0-0-0-0-0--0-0-|
||--0-0-0-0-0----|---0-0-----|-0-0-0-0-0--0-0-|
|
|   Gtr II
|   PM--------------------------------------|
||---------------|-----------|----------------|
||o--------------|-----------|----------------|
||---------------|-----------|----------------|
||---------------|-----------|----------------|
||o-0-0-0-0-0----|---0-0-----|-0-0-0-0-0--0-0-|
||--0-0-0-0-0----|---0-0-----|-0-0-0-0-0--0-0-|


   TP  TP  TP   ~~~~
|--------------------||----------*|
|-------------------o||----------*|
|--------------------||----------*|
|--------------------||----------*|
|-12--10--13--[12]--o||-0--------*|
|--------------------||-0--------*|
|
|  TP  TP  TP   ~~~~
|--------------------||----------*|
|-------------------o||----------*|
|--------------------||----------*|
|--------------------||----------*|
|--8---7--10---[8]--o||-0--------*|
|--------------------||-0--------*|


Tablature Legend
----------------
 h   - hammer-on
 p   - pull-off
 b   - bend
 pb  - pre-bend
 r   - bend release (if no number after the r, then release immediately)
 /\  - slide into or out of (from/to "nowhere")
 s   - legato slide
 S   - shift slide
  - natural harmonic
[n]  - artificial harmonic
n(n) - tapped harmonic
 ~   - vibrato
 tr  - trill
 T   - tap
 TP  - trem. picking
 PM  - palm muting
\n/  - tremolo bar dip; n = amount to dip
 \n  - tremolo bar down
 n/  - tremolo bar up
/n\  - tremolo bar inverted dip
 =   - hold bend; also acts as connecting device for hammers/pulls
 <>  - volume swell (louder/softer)
 x   - on rhythm slash represents muted slash
 o   - on rhythm slash represents single note slash

Misc Legend
-----------
 |  - bar
||  - double bar
||o - repeat start
o|| - repeat end
*|  - double bar (ending)
 :  - bar (freetime)
 $  - Segno
 &  - Coda
Tempo markers -  = BPM(8/16=s8/s16), where s8 = swing 8ths, s16 = swing 16ths


***************************************************************************************
***************************************************************************************





Comments


Popular I Declare War tabs & chords
Destroy The Weak Tabs
Fuck Your Claim Tabs
Human Waste Tabs
Now Youre Going To Be Famous Tabs
Nworb Ydoc Tabs
Purification Of The Population Intro Tabs
Putrification Of The Population Intro Tabs
Putrification Of The Populutation Intro Tabs
Rudolph The Red Nosed Reindeer Tabs
Whoop Dat Trick Tabs


Song lyrics



↑ Back to top | Tablatures and chords are parodies/interpretations of the original songs. You may use it for private study, scholarship, research or language learning purposes only
© 2014 AZChords.com Contact us | Privacy policy | DMCA | Add/correct tabs | Request tabs | Top 50 tabs