» » »

I Declare War, Rudolph The Red Nosed Reindeer Tabs (ver.1)

Artists:  A B C D E F G H I J K L M N O P Q R S T U V W X Y Z # 

Rudolph The Red Nosed Reindeer Tabs (ver.1)

I Declare War Tabs
 Rating:
4.3/5 (6 votes)
Rudolph The Red Nosed Reindeer lessons Tabs too difficult? Try these video lessons and learn fast
                Gtr I (A E A D G B E) - 'Jake'
Gtr II (A E A D G B E) - 'Evan'
Gtr III (A E A D G B E) - 'Evan (Lead)'

 Jingle Bells
  Q=160(8=s8)
 4/4
|-----|
|-----|
|-----|
|-----|
|-----|
|-----|
|-----|


 Guitar Intro
  Gtr III
                       ~~~~~~~                         ~~
|-----------------|--------------|------------------|-------|
|-----------------|--------------|------------------|-------|
|-/7-9--7----/12--|-9--7--(7)----|-/7-9-7-9-7--/12--|-11----|
|---------9-------|--------------|------------------|-------|
|-----------------|--------------|------------------|-------|
|-----------------|--------------|------------------|-------|
|-----------------|--------------|------------------|-------|


                         ~~~~~~~                        ~
|-------------------|--------------|------------------|------||
|-------------------|--------------|-------------/10--|-8----||
|-----7--------/11--|-9--7--(7)----|-/7-9-7-9-7-------|------||
|-/10----10-7-------|--------------|------------------|------||
|-------------------|--------------|------------------|------||
|-------------------|--------------|------------------|------||
|-------------------|--------------|------------------|------||


 Group Verse
                       ~~~~~~~
|-----------------|--------------|
|-----------------|--------------|
|-/7-9--7----/12--|-9--7--(7)----|
|---------9-------|--------------|
|-----------------|--------------|
|-----------------|--------------|
|-----------------|--------------|


                      ~~
|------------------|------------------------------|
|------------------|------------------------------|
|-/7-9-7-9-7--/12--|-11--12-11-12-14-(14)-(14)\---|
|------------------|------------------------------|
|------------------|------------------------------|
|------------------|------------------------------|
|------------------|------------------------------|


                                      Q=100
                         ~
|-------------------|---------------|------------------||
|-------------------|---------------|-------------/10--||
|-----7--------/11--|-9--7--7tr9----|-/7-9-7-9-7-------||
|-/10----10-7-------|---------------|------------------||
|-------------------|---------------|------------------||
|-------------------|---------------|------------------||
|-------------------|---------------|------------------||


   Glows
    Gtrs I, II
||------------|---------------------------------------||
||------------|---------------------------------------||
||o-----------|--------------------------------------o||
||------------|---------------------------------------||
||o-----------|--------------------------------------o||
||--0----0----|-0-0-0-0-0-0-0-0-0-0-0-0-0-0-0-0-0-----||
||--1----1----|-1-1-1-1-1-1-1-1-1-1-1-1-1-1-1-1-1-----||


||------------|---------------------------------------||
||------------|---------------------------------------||
||o-----------|--------------------------------------o||
||------------|---------------------------------------||
||o-----------|--------------------------------------o||
||--0----0----|-0-0-0-0-0-0-0-0-0-0-0-0-0-0-0-0-0-----||
||--0----0----|-0-0-0-0-0-0-0-0-0-0-0-0-0-0-0-0-0-----||


  Gtr I
                                                 TP   TP
|--------------|----------------|-------------------|-----------|
|--------------|----------------|-------------------|-----------|
|--------------|----------------|-------------------|-----------|
|--------------|----------------|-------------------|-----------|
|--------------|----------------|-------------------|-----------|
|-0------------|-(0)------------|-(0)-------(0)--5--|-4----4----|
|-1------------|-(1)------------|-(1)-------(1)-----|-----------|
|
| Gtr II
| TPTP TPTP TP    TP  TP  TP       TP TPTPTP TP  TP   TP
|--------------|----------------|-------------------|-----------|
|--------------|----------------|-------------------|-----------|
|--------------|----------------|-------------------|-----------|
|--------------|----------------|-------------------|-----------|
|--------------|----------------|-------------------|-----------|
|--------------|----------------|----------------8--|-7----7----|
|-5-8--7-4--7--|--5---4--(4)----|--5--7-5-7--4------|-----------|


 All of the other reindeer...
  PM                                       TP   TP
|--------------|--------------|---------------|------|
|--------------|--------------|---------------|------|
|--------------|--------------|---------------|------|
|--------------|--------------|---------------|------|
|--------------|--------------|---------------|------|
|-5-8--7-4--7--|-5--4--(4)----|-5-7-5-7-4--5--|-4----|
|-5-8--7-4--7--|-5--4--(4)----|-5-7-5-7-4-----|------|
|
| PM                                       TP   TP
|--------------|--------------|---------------|------|
|--------------|--------------|---------------|------|
|--------------|--------------|---------------|------|
|--------------|--------------|---------------|------|
|--------------|--------------|---------------|------|
|-5-8--7-4--7--|-5--4--(4)----|-5-7-5-7-4--8--|-7----|
|-5-8--7-4--7--|-5--4--(4)----|-5-7-5-7-4-----|------|


  TPTP TPTP TP   TP TP  TP      TPTPTPTPTP TP   TP
|--------------|--------------|---------------|------|
|--------------|--------------|---------------|------|
|--------------|--------------|---------------|------|
|--------------|--------------|---------------|------|
|--------------|--------------|------------7--|-6----|
|-----------5--|-4--1--(1)----|-1-2-1-2-1-----|------|
|-4-7--5-4-----|--------------|---------------|------|
|
| TPTP TPTP TP   TP TP  TP      TPTPTPTPTP TP   TP
|--------------|--------------|---------------|------|
|--------------|--------------|---------------|------|
|--------------|--------------|---------------|------|
|--------------|--------------|---------------|------|
|--------------|--------------|---------------|------|
|-----------8--|-7--4--(4)----|-4-5-4-5-4--9--|-8----|
|-4-7--5-4-----|--------------|---------------|------|


 Then one foggy...
  Gtr I
  PM-------------------------------------------|
|--------------|---------------|-------------|------|
|--------------|---------------|-------------|------|
|--------------|---------------|-------------|------|
|--------------|---------------|-------------|------|
|--------------|---------------|-------------|------|
|-7--7--10--7--|-4--1-4-(4)----|-4--7--6--4--|-3----|
|-8--8--11--8--|-5--2-5-(5)----|-5--8--7--5--|-4----|
|
| Gtr II
|                   PM-------------------------|
|--------------|---------------|-------------|------|
|--------------|---------------|-------------|------|
|--------------|---------------|-------------|------|
|--------------|---------------|-------------|------|
|--------------|---------------|-------------|------|
|--------------|----1-4-(4)----|-4--7--6--4--|-3----|
|--------------|----2-5-(5)----|-5--8--7--5--|-4----|


  Gtrs I, II
  PM---------|
|----------|----------|----------|-----|
|----------|----------|----------|-----|
|----------|----------|----------|-----|
|----------|----------|----------|-----|
|----------|----------|----------|-----|
|-1--------|-1--------|-1--------|-----|
|-0--------|-0--------|-0--------|-----|


 Then how the reindeer...
  Q=160(8=s8)
  Gtr III
                       ~~~~~~~                         ~~
|-----------------|--------------|------------------|-------|
|-----------------|--------------|------------------|-------|
|-/7-9--7----/12--|-9--7--(7)----|-/7-9-7-9-7--/12--|-11----|
|---------9-------|--------------|------------------|-------|
|-----------------|--------------|------------------|-------|
|-----------------|--------------|------------------|-------|
|-----------------|--------------|------------------|-------|


                                     Q=100
                         ~~~~~~~
|-------------------|--------------|------------------|
|-------------------|--------------|-------------/10--|
|-----7--------/11--|-9--7--(7)----|-/7-9-7-9-7-------|
|-/10----10-7-------|--------------|------------------|
|-------------------|--------------|------------------|
|-------------------|--------------|------------------|
|-------------------|--------------|------------------|


   istory
    Gtrs I, II
                                                      3x
||------------|---------------------------------------||
||------------|---------------------------------------||
||o-----------|--------------------------------------o||
||------------|---------------------------------------||
||o-----------|--------------------------------------o||
||--0----0----|-0-0-0-0-0-0-0-0-0-0-0-0-0-0-0-0-0-----||
||--1----1----|-1-1-1-1-1-1-1-1-1-1-1-1-1-1-1-1-1-----||


|-----------|--------------------------------------*|
|-----------|--------------------------------------*|
|-----------|--------------------------------------*|
|-----------|--------------------------------------*|
|-----------|--------------------------------------*|
|-0----0----|-0-0-0-0-0-0-0-0-0-0-0-0-0-0-0-0-0----*|
|-0----0----|-0-0-0-0-0-0-0-0-0-0-0-0-0-0-0-0-0----*|
            
Submit corrections

comments powered by Disqus
↑ Back to top | I Declare War Tabs for Rudolph The Red Nosed Reindeer. Lyrics for acoustic guitar and electric guitar. Tablatures and chords are parodies/interpretations of the original songs. You may use it for private study, scholarship, research or language learning purposes only