>
 >
Nworb Ydoc

Nworb Ydoc Guitar Tabs

I Declare War - Nworb Ydoc chords, tabs, tablatures, lyrics

Guitar lessons | Add/correct | Request | Top 50 tabs Artists:  A B C D E F G H I J K L M N O P Q R S T U V W X Y Z 0-9

Nworb Ydoc Guitar Tabs – I Declare War

CD, Sheet music, Poster

Do you like Nworb Ydoc? Share with your friends now
Tabs
                                   NWORB YDOC
                          As recorded by I Declare War
                   (From the 2007 Album AMIDST THE BLOODSHED)

Words and Music by I Declare War
Arranged by I Declare War

Gtr I (A# F A# D# G C) - 'Jake Paulson'
Gtr II (A# F A# D# G C) - 'Evan Hughes'

  Q=190
 4/4
  Gtrs I, II
      PM    PM          PM    PM          PM    PM      TP TP TP TP
|-----------------|-----------------|-----------------|--------------|
|-----------------|-----------------|-----------------|--------------|
|-----------------|-----------------|-----------------|--------------|
|-8p5---------8p5-|-----------------|-8p5-------------|--------------|
|-------7h8-------|-7h8---5h8---4h7-|-------7h8---5h8-|----5---------|
|-----0-----0-----|-----0-----0-----|-----0-----0-----|-8-----8--4---|


      PM    PM          PM    PM          PM    PM       TP TP  TP TP
|-----------------|-----------------|-----------------|---------------|
|-----------------|-----------------|-----------------|---------------|
|-----------------|-----------------|-----------------|---------------|
|-8p5---------8p5-|-----------------|-8p5-------------|-12--8--11--7--|
|-------7h8-------|-7h8---5h8---4h7-|-------7h8---5h8-|---------------|
|-----0-----0-----|-----0-----0-----|-----0-----0-----|---------------|


  Gtr I
       PM    PM           PM    PM           PM    PM       TP TP  TP TP
|-------------------|-----------------|------------------|---------------|
|-------------------|-----------------|------------------|---------------|
|-------------------|-----------------|------------------|---------------|
|--8p5----------8p5-|-----------------|--8p5-------------|---------------|
|--------7h8--------|-7h8---5h8---4h7-|--------7h8---5h8-|-----5---------|
|------0-----0------|-----0-----0-----|------0-----0-----|--8------8--4--|
|
| Gtr II
|      PM    PM           PM    PM           PM    PM       TP TP  TP TP
|-------------------|-----------------|------------------|---------------|
|-------------------|-----------------|------------------|---------------|
|-------------------|-----------------|------------------|---------------|
|-------------------|-----------------|------------------|---------------|
|-10p7---4h5---10p7-|-4h5---1h5---0h4-|-10p7---4h5---1h5-|---------------|
|------0-----0------|-----0-----0-----|------0-----0-----|-12--8--12--7--|


       PM    PM           PM    PM           PM    PM       TP TP  TP TP
|-------------------|-----------------|------------------|---------------|
|-------------------|-----------------|------------------|---------------|
|-------------------|-----------------|------------------|---------------|
|--8p5----------8p5-|-----------------|--8p5-------------|-12--8--11--7--|
|--------7h8--------|-7h8---5h8---4h7-|--------7h8---5h8-|---------------|
|------0-----0------|-----0-----0-----|------0-----0-----|---------------|
|
|      PM    PM           PM    PM           PM    PM       TP TP  TP TP
|-------------------|-----------------|------------------|---------------|
|-------------------|-----------------|------------------|---------------|
|-------------------|-----------------|------------------|---------------|
|-------------------|-----------------|------------------|--8--5---7--4--|
|-10-7---4-5---10-7-|-4-5---1-5---0-4-|-10-8---4-5---1-5-|---------------|
|------0-----0------|-----0-----0-----|------0-----0-----|---------------|


  Gtr I
  PM-----------------------------------------
|---------------------|---------------------|
|---------------------|---------------------|
|---------------------|---------------------|
|---------------------|---------------------|
|-0-0-0-0-------------|-0-0-0-0-------------|
|-0-0-0-0-------------|-0-0-0-0-------------|
|
| Gtr II
|           PM-------------------------------
|---------------------|---------------------|
|---------------------|---------------------|
|---------------------|---------------------|
|---------------------|---------------------|
|-----------0-0-0-0---|-----------0-0-0-0---|
|-----------0-0-0-0---|-----------0-0-0-0---|


 -----------------------------------------|
|---------------------|-----------------------|
|---------------------|-----------------------|
|---------------------|-----------------------|
|---------------------|-----------------------|
|-0-0-0-0-------------|-0-0-0-0---0-0-0-0-----|
|-0-0-0-0-------------|-0-0-0-0---0-0-0-0-----|
|
|-----------------------------------------|
|---------------------|-----------------------|
|---------------------|-----------------------|
|---------------------|-----------------------|
|---------------------|-----------------------|
|-----------0-0-0-0---|-0-0-0-0---0-0-0-0-----|
|-----------0-0-0-0---|-0-0-0-0---0-0-0-0-----|


    Gtrs I, II
    PM-----------------------------------------
||----------------------|---------------------|
||o---------------------|---------------------|
||----------------------|---------------------|
||----------------------|---------------------|
||o-0-0-0-0---0-0-0-0---|-0-0-0-0---0-0-0-0---|
||--0-0-0-0---0-0-0-0---|-0-0-0-0---0-0-0-0---|


 -----------------------------------------|
|---------------------|------------------------||
|---------------------|-----------------------o||
|---------------------|------------------------||
|---------------------|------------------------||
|-0-0-0-0---0-0-0-0---|-0-0-0-0---0-0-0-0-----o||
|-0-0-0-0---0-0-0-0---|-0-0-0-0---0-0-0-0------||


  PM-----------------------------------------------------
|---------------------------|---------------------------|
|---------------------------|---------------------------|
|---------------------------|---------------------------|
|---------------------------|---------------------------|
|-1-1-1-1-(1)--1-1-1-1-(1)--|-1-1-1-1-(1)--1-1-1-1-(1)--|
|-1-1-1-1-(1)--1-1-1-1-(1)--|-1-1-1-1-(1)--1-1-1-1-(1)--|


 --------------------------------------------------|
|---------------------------|-----------------------------|
|---------------------------|-----------------------------|
|---------------------------|-----------------------------|
|---------------------------|-----------------------------|
|-1-1-1-1-(1)--1-1-1-1-(1)--|-1-1-1-1-(1)--1-1-1-1-(1)----|
|-1-1-1-1-(1)--1-1-1-1-(1)--|-1-1-1-1-(1)--1-1-1-1-(1)----|


  PM-----------------------------------------
|---------------------|---------------------|
|---------------------|---------------------|
|---------------------|---------------------|
|---------------------|---------------------|
|-0-0-0-0---0-0-0-0---|-0-0-0-0---0-0-0-0---|
|-0-0-0-0---0-0-0-0---|-0-0-0-0---0-0-0-0---|


 -----------------------------------------|
|---------------------|-----------------------|
|---------------------|-----------------------|
|---------------------|-----------------------|
|---------------------|-----------------------|
|-0-0-0-0---0-0-0-0---|-0-0-0-0---0-0-0-0-----|
|-0-0-0-0---0-0-0-0---|-0-0-0-0---0-0-0-0-----|


  Q=115
  Gtr II                   Gtrs I, II
                                                    PM----|
|--------------------------------|---------------------------|
|--------------------------------|---------------------------|
|--------------------------------|---------------------------|
|-7p0---------10p0-7p0-8p0-7tr8--|-7p0-----------------------|
|-----8p0-7p0--------------------|-----8p0-7p0-10p0-4-5-4-0--|
|--------------------------------|------------------4-5-4-0--|


                                                     PM----|
|---------------------------------|--------------------------|
|---------------------------------|--------------------------|
|---------------------------------|--------------------------|
|-7p0-----------------------------|--------------------------|
|-----8p0-7p0-1p0-4p0-5p0---------|-----8p0-----13p0-4-5-4-0-|
|-------------------------8p0-7p0-|-5p0-----8p0------4-5-4-0-|


  Gtr I
                                                           PM----|
|---------------------------------------|----------------------------|
|---------------------------------------|----------------------------|
|---------------------------------------|----------------------------|
|-7p0---------10p0-7p0-8p0-7tr8---------|-7p0------------------------|
|-----8p0-7p0---------------------------|-----8p0-7p0-10p0-4-5-4-0---|
|---------------------------------------|------------------4-5-4-0---|
|
| Gtr II
|                                                          PM----|
|---------------------------------------|----------------------------|
|---------------------------------------|----------------------------|
|---------------------------------------|----------------------------|
|-7p0----------7p0-----5p0--------------|----------------------------|
|-----8p0-4p0------8p0-----8tr10--------|-8p0-5p0-4p0--7p0-4-5-4-0---|
|---------------------------------------|------------------4-5-4-0---|


                                                     PM----|
|---------------------------------|--------------------------|
|---------------------------------|--------------------------|
|---------------------------------|--------------------------|
|-7p0-----------------------------|--------------------------|
|-----8p0-7p0-1p0-4p0-5p0---------|-----8p0-----13p0-4-5-4-0-|
|-------------------------8p0-7p0-|-5p0-----8p0------4-5-4-0-|
|
|                                                    PM----|
|---------------------------------|--------------------------|
|---------------------------------|--------------------------|
|---------------------------------|--------------------------|
|-7p0-----------------------------|--------------------------|
|-----8p0-4p0-5p0-7p0-8p0-5p0-4p0-|-1p0-5p0-5p0-10p0-4-5-4-0-|
|---------------------------------|------------------4-5-4-0-|


  Q=115
  Gtrs I, II
  PM------|      PM---------------------|      PM------|
|--------------|--------------|--------------|--------------|
|--------------|--------------|--------------|--------------|
|--------------|--------------|--------------|--------------|
|--------------|--------------|--------------|--------------|
|-4-5-4-0-4----|-4-5-4-0-1----|-4-5-4-0-4----|-4-5-4-0-1----|
|-4-5-4-0-4----|-4-5-4-0-1----|-4-5-4-0-4----|-4-5-4-0-1----|


  PM------------------------------------------------------------------|
|-----------------|-----------------|-----------------|-----------------|
|-----------------|-----------------|-----------------|-----------------|
|-----------------|-----------------|-----------------|-----------------|
|-----------------|-----------------|-----------------|-----------------|
|-4-5-4-0-1-4-1-0-|-4-5-4-0-1-4-1-0-|-4-5-4-0-1-4-1-0-|-4-5-4-0-1-4-1-0-|
|-4-5-4-0-1-4-1-0-|-4-5-4-0-1-4-1-0-|-4-5-4-0-1-4-1-0-|-4-5-4-0-1-4-1-0-|


||----------------------------------|-----------------------------------||
||o---------------------------------|----------------------------------o||
||----------------------------------|-----------------------------------||
||----------------------------------|-----------------------------------||
||o---------------------------------|----------------------------------o||
||--4-4-5-5-4-4-0-0-1-1-4-4-1-1-0-0-|-4-4-5-5-4-4-0-0-1-1-4-4-1-1-0-0---||


  Q=135
  PM------------------------------------
|---------------------|----------------|
|---------------------|----------------|
|---------------------|----------------|
|---------------------|----------------|
|-0-0-0-0-0---0-(0)-0-|-0-0-0-0-0------|
|-0-0-0-0-0---0-(0)-0-|-0-0-0-0-0------|


 -----------------------------| TP TP TP
|---------------------|-------------------|
|---------------------|-------------------|
|---------------------|-------------------|
|---------------------|-------------------|
|-0-0-0-0-0---0-(0)-0-|-0-0-0-0----6------|
|-0-0-0-0-0---0-(0)-0-|-0-0-0-0-8-----7---|


  PM------------------------------------
|---------------------|----------------|
|---------------------|----------------|
|---------------------|----------------|
|---------------------|----------------|
|-0-0-0-0-0---0-(0)-0-|-0-0-0-0-0------|
|-0-0-0-0-0---0-(0)-0-|-0-0-0-0-0------|


 -----------------------------| TP TP TP
|---------------------|-------------------|
|---------------------|-------------------|
|---------------------|-------------------|
|---------------------|-------------------|
|-0-0-0-0-0---0-(0)-0-|-0-0-0-0-6--9--5---|
|-0-0-0-0-0---0-(0)-0-|-0-0-0-0-----------|


  PM------------------------------------------------
|---------------------------|----------------------|
|---------------------------|----------------------|
|---------------------------|----------------------|
|---------------------------|----------------------|
|-0-0-0-0-0-(0)-(0)-0-(0)-0-|-0-0-0-0-0-(0)-(0)----|
|-0-0-0-0-0-(0)-(0)-0-(0)-0-|-0-0-0-0-0-(0)-(0)----|


 -----------------------------------| TP TP TP
|---------------------------|-------------------|
|---------------------------|-------------------|
|---------------------------|-------------------|
|---------------------------|-------------------|
|-0-0-0-0-0-(0)-(0)-0-(0)-0-|-0-0-0-0----5--4---|
|-0-0-0-0-0-(0)-(0)-0-(0)-0-|-0-0-0-0-4---------|


  PM------------------------------------------------
|---------------------------|----------------------|
|---------------------------|----------------------|
|---------------------------|----------------------|
|---------------------------|----------------------|
|-0-0-0-0-0-(0)-(0)-0-(0)-0-|-0-0-0-0-0-(0)-(0)----|
|-0-0-0-0-0-(0)-(0)-0-(0)-0-|-0-0-0-0-0-(0)-(0)----|


 -----------------------------------| TP TP TP
|---------------------------|-------------------|
|---------------------------|-------------------|
|---------------------------|-------------------|
|---------------------------|---------5--7--4---|
|-0-0-0-0-0-(0)-(0)-0-(0)-0-|-0-0-0-0-----------|
|-0-0-0-0-0-(0)-(0)-0-(0)-0-|-0-0-0-0-----------|


  Q=110
  Gtr I
                          TPTP                          TPTP
|-----------------------------|-----------------------------|
|-----------------------------|-----------------------------|
|-----------------------------|-----------------------------|
|-----------------------------|-----------------------------|
|---6-------5-4---6-9-5-8-----|---6-------5-4---6-9-5-8-4-1-|
|-8---7-8-4-----6---------1-4-|-8---7-8-4-----6-------------|
|
| Gtr II
|                         TPTP                          TPTP
|-----------------------------|-----------------------------|
|-----------------------------|-----------------------------|
|-----------------------------|-----------------------------|
|-----------------------------|-----------------------------|
|---6-------5-4---6-9-5-8-----|---6-------5-4---6-9-5-8-7-4-|
|-8---7-8-4-----6---------4-7-|-8---7-8-4-----6-------------|


                          TPTP                          TPTP
|-----------------------------|-----------------------------|
|-----------------------------|-----------------------------|
|-----------------------------|-----------------------------|
|-----------------------------|-----------------------------|
|---6-------5-4---6-9-5-8-----|---6-------5-4---6-9-5-8-1-4-|
|-8---7-8-4-----6---------4-1-|-8---7-8-4-----6-------------|
|
|                         TPTP                          TPTP
|-----------------------------|-----------------------------|
|-----------------------------|-----------------------------|
|-----------------------------|-----------------------------|
|-----------------------------|-----------------------------|
|---6-------5-4---6-9-5-8-----|---6-------5-4---6-9-5-8-----|
|-8---7-8-4-----6---------7-4-|-8---7-8-4-----6---------4-7-|


    Q=150
    Gtrs I, II
    PM------------|       PM PM----------------|       PM PM
||-----------------------------|----------------------------|
||o----------------------------|----------------------------|
||-----------------------------|----------------------------|
||-----------------------------|----------------------------|
||o-0-0-0-0-0-0-0-0-1-(1)-0--0-|-0-0-0-0-0-0-0-0-1-(1)-0--0-|
||--0-0-0-0-0-0-0-0-1-(1)-0--0-|-0-0-0-0-0-0-0-0-1-(1)-0--0-|


  PM------------|       PM PM  TP TP TP TP
                                            4x
|----------------------------|--------------||
|----------------------------|-------------o||
|----------------------------|--------------||
|----------------------------|--------------||
|-0-0-0-0-0-0-0-0-1-(1)-0--0-|-------6--8--o||
|-0-0-0-0-0-0-0-0-1-(1)-0--0-|-8--4---------||


    Gtr I
||-------------|------------|------------|--------------------||
||o------------|------------|------------|-------------------o||
||-------------|------------|------------|--------------------||
||-------------|------------|------------|--------------------||
||o-1----------|-(1)--------|-1----------|-(1)---------------o||
||--1----------|-(1)--------|-1----------|-(1)----------------||
|
|   Gtr II
||-------------|------------|------------|--------------------||
||o------------|------------|------------|-------------------o||
||----------8--|-10---------|---------8--|-10----10-11-10-----||
||--8---4------|------------|-8---4------|--------------------||
||o---------6--|--8---------|---------6--|--8-----8--9--8----o||
||--8---4------|------------|-8---4------|--------------------||


                                             1.
    Gtr I
||-------------|--------------|------------|--------------------||
||o------------|--------------|------------|-------------------o||
||-------------|--------------|------------|--------------------||
||-------------|--------------|------------|--------------------||
||o-1----------|-(1)----1-1---|-1----------|-(1)---------------o||
||--1----------|-(1)----1-1---|-1----------|-(1)----------------||
|
|   Gtr II
||-------------|--------------|------------|--------------------||
||o------------|--------------|------------|-------------------o||
||----------8--|-10-----------|---------8--|-10----10-11-10-----||
||--8---4------|--------------|-8---4------|--------------------||
||o---------6--|--8-----------|---------6--|--8-----8--9--8----o||
||--8---4------|--------------|-8---4------|--------------------||


  2.                        Q=200
|-------------|-----------|------------------|--------------------|
|-------------|-----------|------------------|--------------------|
|-10-----9----|-6---------|------------------|--------------------|
|-------------|------7----|------------------|--------------------|
|--8-----7----|-4---------|------------------|-7-8---8-10---10-12-|
|-------------|------7----|------------------|-----0------0-------|
|
|                               PM     PM          PM     PM
|-------------|-----------|------------------|--------------------|
|-------------|-----------|------------------|--------------------|
|-------------|-----------|------------------|--------------------|
|-11----10----|-7----4----|------------------|--------------------|
|-------------|-----------|-------1-/4-------|-4-5---5--7----7--8-|
|-11----10----|-7----4----|-1-0-0------0-5-4-|-----0------0-------|


                      TP TP  TP TP
|------------------|---------------|------------------|--------------------|
|------------------|---------------|------------------|--------------------|
|------------------|---------------|------------------|--------------------|
|------------------|---------------|------------------|--------------------|
|------------------|---------------|------------------|-7-8---8-10---10-12-|
|------------------|-12--7--10--4--|------------------|-----0------0-------|
|
|     PM     PM       TP TP  TP TP       PM     PM          PM     PM
|------------------|---------------|------------------|--------------------|
|------------------|---------------|------------------|--------------------|
|------------------|---------------|------------------|--------------------|
|------------------|---------------|------------------|--------------------|
|-------1-/4-------|---------------|-------1-/4-------|-4-5---5--7----7--8-|
|-1-0-0------0-5-4-|--8--4---7--1--|-1-0-0------0-5-4-|-----0------0-------|


                                     PM     PM
|------------------|---------||-------------------|--------------------|
|------------------|---------||o------------------|--------------------|
|------------------|---------||-------------------|--------------------|
|------------------|---------||-------------------|--------------------|
|------------------|---------||o-------1-/4-------|-7-8---8-10---10-12-|
|------------------|---------||--1-0-0------0-5-4-|-----0------0-------|
|
|     PM     PM                      PM     PM          PM     PM
|------------------|---------||-------------------|--------------------|
|------------------|---------||o------------------|--------------------|
|------------------|---------||-------------------|--------------------|
|------------------|---------||-------------------|--------------------|
|-------1-/4-------|---------||o-------1-/4-------|-4-5---5--7----7--8-|
|-1-0-0------0-5-4-|---------||--1-0-0------0-5-4-|-----0------0-------|


      PM     PM       TP TP  TP TP       PM     PM
|------------------|---------------|------------------|--------------------|
|------------------|---------------|------------------|--------------------|
|------------------|---------------|------------------|--------------------|
|-------1-/4-------|---------------|-------1-/4-------|--------------------|
|------------------|---------------|------------------|-7-8---8-10---10-12-|
|-1-0-0------0-5-4-|-12--7--10--4--|-1-0-0------0-5-4-|-----0------0-------|
|
|     PM     PM       TP TP  TP TP       PM     PM          PM     PM
|------------------|---------------|------------------|--------------------|
|------------------|---------------|------------------|--------------------|
|------------------|---------------|------------------|--------------------|
|------------------|---------------|------------------|--------------------|
|-------1-/4-------|---------------|-------1-/4-------|-4-5---5--7----7--8-|
|-1-0-0------0-5-4-|--8--4---7--1--|-1-0-0------0-5-4-|-----0------0-------|


      PM     PM
|------------------|------------------||
|------------------|-----------------o||
|------------------|------------------||
|------------------|-7-----5----------||
|-------1-/4-------|---8-7---8-7-5-4-o||
|-1-0-0------0-5-4-|------------------||
|
|     PM     PM
|------------------|------------------||
|------------------|-----------------o||
|------------------|------------------||
|------------------|------------------||
|-------1-/4-------|-8-5-4-7-5-4-1-0-o||
|-1-0-0------0-5-4-|------------------||


    Q=150
    Gtrs I, II
    PM------------|       PM PM----------------|       PM PM
||-----------------------------|----------------------------|
||o----------------------------|----------------------------|
||-----------------------------|----------------------------|
||-----------------------------|----------------------------|
||o-0-0-0-0-0-0-0-0-1-(1)-0--0-|-0-0-0-0-0-0-0-0-1-(1)-0--0-|
||--0-0-0-0-0-0-0-0-1-(1)-0--0-|-0-0-0-0-0-0-0-0-1-(1)-0--0-|


                              1.
  PM------------|       PM PM----------------|       PM
|----------------------------|-----------------------------||
|----------------------------|----------------------------o||
|----------------------------|-----------------------------||
|----------------------------|-----------------------------||
|-0-0-0-0-0-0-0-0-1-(1)-0--0-|-0-0-0-0-0-0-0-0-1-(1)-0----o||
|-0-0-0-0-0-0-0-0-1-(1)-0--0-|-0-0-0-0-0-0-0-0-1-(1)-0-----||


  2.
  PM------|
|-----------------|-----*|
|-----------------|-----*|
|-----------------|-----*|
|-----------------|-----*|
|-0-0-0-0-0-------|-----*|
|-0-0-0-0-0-------|-----*|


Tablature Legend
----------------
 h   - hammer-on
 p   - pull-off
 b   - bend
 pb  - pre-bend
 r   - bend release (if no number after the r, then release immediately)
 /\  - slide into or out of (from/to "nowhere")
 s   - legato slide
 S   - shift slide
  - natural harmonic
[n]  - artificial harmonic
n(n) - tapped harmonic
 ~   - vibrato
 tr  - trill
 T   - tap
 TP  - trem. picking
 PM  - palm muting
\n/  - tremolo bar dip; n = amount to dip
 \n  - tremolo bar down
 n/  - tremolo bar up
/n\  - tremolo bar inverted dip
 =   - hold bend; also acts as connecting device for hammers/pulls
 <>  - volume swell (louder/softer)
 x   - on rhythm slash represents muted slash
 o   - on rhythm slash represents single note slash

Misc Legend
-----------
 |  - bar
||  - double bar
||o - repeat start
o|| - repeat end
*|  - double bar (ending)
 :  - bar (freetime)
 $  - Segno
 &  - Coda
Tempo markers -  = BPM(8/16=s8/s16), where s8 = swing 8ths, s16 = swing 16ths


***************************************************************************************
***************************************************************************************





Comments


Popular I Declare War tabs & chords
Amidst The Bloodshed Tabs
Asphyxiation Tabs
Destroy The Weak Tabs
Frosted Or Not I Dont Care Tabs
Fuck Your Claim Tabs
God Has No Place Within These Walls Tabs
Misery Cloud Tabs
Now Youre Going To Be Famous Tabs
Putrification Of The Population Intro Tabs
Through The Eyes Of The Killer Tabs


Song lyrics



↑ Back to top | Tablatures and chords are parodies/interpretations of the original songs. You may use it for private study, scholarship, research or language learning purposes only
© 2014 AZChords.com Contact us | Privacy policy | DMCA | Add/correct tabs | Request tabs | Top 50 tabs