>
 >
Now Youre Going To Be Famous

Now Youre Going To Be Famous Guitar Tabs

I Declare War - Now Youre Going To Be Famous chords, tabs, tablatures, lyrics

Guitar lessons | Add/correct | Request | Top 50 tabs Artists:  A B C D E F G H I J K L M N O P Q R S T U V W X Y Z 0-9

Now Youre Going To Be Famous Guitar Tabs – I Declare War

CD, Sheet music, Poster

Do you like Now Youre Going To Be Famous? Share with your friends now
Tabs
                          NOW YOU'RE GOING TO BE FAMOUS
                          As recorded by I Declare War
                   (From the 2007 Album AMIDST THE BLOODSHED)

Words and Music by I Declare War
Arranged by I Declare War

Gtr I (A# F A# D# G C) - 'Jake Paulson'
Gtr II (A# F A# D# G C) - 'Evan Hughes'

  Q=180
 4/4
  Gtr I
  PM--|                PM--|                  PM-----------
|----------------------------|----------------------------|
|----------------------------|----------------------------|
|----------------------------|----------------------------|
|----------------------------|----------------------------|
|-0-0-0----------------0-0-0-|----------------0-0-0-0-0-0-|
|-0-0-0----------------0-0-0-|----------------0-0-0-0-0-0-|
|
| Gtr II
| PM--|      ~~~~~~~~~~PM--|        ~~~~~~~~~~PM-----------
|----------------------------|----------------------------|
|----------------------------|----------------------------|
|-------10-7-9b9.5r(9)-------|-10-7-9b9.5r(9)-------------|
|----------------------------|----------------------------|
|----------------------------|----------------------------|
|-0-0-0----------------0-0-0-|----------------0-0-0-0-0-0-|


 -----|                PM--|                  PM--------|
|----------------------------|------------------------------|
|----------------------------|------------------------------|
|----------------------------|------------------------------|
|----------------------------|------------------------------|
|-0-0-0----------------0-0-0-|----------------0-0-0-0-0-0---|
|-0-0-0----------------0-0-0-|----------------0-0-0-0-0-0---|
|
|-----|      ~~~~~~~~~~PM--|        ~~~~~~~~~~PM--------|
|----------------------------|------------------------------|
|----------------------------|------------------------------|
|-------10-7-9b9.5r(9)-------|-10-7-9b9.5r(9)---------------|
|----------------------------|------------------------------|
|----------------------------|------------------------------|
|-0-0-0----------------0-0-0-|----------------0-0-0-0-0-0---|


  PM--|                    PM--|                      PM-----------
|--------------------------------|--------------------------------|
|--------------------------------|--------------------------------|
|--------------------------------|--------------------------------|
|--------------------------------|--------------------------------|
|-8-8-8--------------------8-8-8-|--------------------8-8-8-8-8-8-|
|-8-8-8--------------------8-8-8-|--------------------8-8-8-8-8-8-|
|
| PM--|       ~~~~~~~~~~~~~PM--|         ~~~~~~~~~~~~~PM-----------
|--------------------------------|--------------------------------|
|--------------------------------|--------------------------------|
|-------10-7-[9]b9.5r([9])-------|-10-7-[9]b9.5r([9])-------------|
|--------------------------------|--------------------------------|
|--------------------------------|--------------------------------|
|-8-8-8--------------------8-8-8-|--------------------8-8-8-8-8-8-|


 -------|                  PM---|
|----------------------------------|---------------------|
|----------------------------------|---------------------|
|----------------------------------|-10-7-9-6-7-6--------|
|----------------------------------|--------------8-7----|
|-10-10-10----------------10-10-10-|---------------------|
|-10-10-10----------------10-10-10-|---------------------|
|
|-------|       ~~~~~~~~~~ PM---|
|----------------------------------|---------------------|
|----------------------------------|---------------------|
|----------10-7-9b9.5r(9)----------|-10-7-9-6-7-6--------|
|----------------------------------|--------------8-7----|
|----------------------------------|---------------------|
|-10-10-10----------------10-10-10-|---------------------|


  Gtrs I, II
  PM--|      ~~~~~~~~~~PM--|        ~~~~~~~~~~PM-----------
|----------------------------|----------------------------|
|----------------------------|----------------------------|
|-------10-7-9b9.5r(9)-------|-10-7-9b9.5r(9)-------------|
|----------------------------|----------------------------|
|----------------------------|----------------------------|
|-0-0-0----------------0-0-0-|----------------0-0-0-0-0-0-|


 -----|      ~~~~~~~~~~PM--|        ~~~~~~~~~~PM--------|
|----------------------------|-------------------------------|
|----------------------------|-------------------------------|
|-------10-7-9b9.5r(9)-------|-10-7-9b9.5r(9)----------------|
|----------------------------|-------------------------------|
|----------------------------|-------------------------------|
|-0-0-0----------------0-0-0-|----------------0-0-0-0-0-0----|


  PM--|       ~~~~~~~~~~~~~PM--|         ~~~~~~~~~~~~~PM-----------
|--------------------------------|--------------------------------|
|--------------------------------|--------------------------------|
|-------10-7-[9]b9.5r([9])-------|-10-7-[9]b9.5r([9])-------------|
|--------------------------------|--------------------------------|
|--------------------------------|--------------------------------|
|-8-8-8--------------------8-8-8-|--------------------8-8-8-8-8-8-|


 -------|       ~~~~~~~~~~ PM---|
|----------------------------------|---------------------|
|----------------------------------|---------------------|
|----------10-7-9b9.5r(9)----------|-10-7-9-6-7-6--------|
|----------------------------------|--------------8-7----|
|----------------------------------|---------------------|
|-10-10-10----------------10-10-10-|---------------------|


    Gtr I
    PM--|        ~~~~~~~~~~~~PM--|          ~~~~~~~~~~~~PM-----------
||---------------------------------|--------------------------------|
||o--------------------------------|--------------------------------|
||--------10--7--9b9.5r==(9)-------|-10--7--9b9.5r==(9)-------------|
||---------------------------------|--------------------------------|
||o--------------------------------|--------------------------------|
||--0-0-0--------------------0-0-0-|--------------------0-0-0-0-0-0-|
|
|   Gtr II
|                ~~~~~~~~~~~~               ~~~~~~~~~~~~
||---------------------------------|--------------------------------|
||o--------------------------------|--------------------------------|
||--------14-10-12b12.5r(12)-------|-14-10-12b12.5r(12)-------------|
||---------------------------------|--------------------------------|
||o--------------------------------|--------------------------------|
||--0-0-0--------------------0-0-0-|--------------------0-0-0-0-0-0-|


 -----|        ~~~~~~~~~~~~PM--|          ~~~~~~~~~~~~PM--------|
|--------------------------------|-----------------------------------|
|--------------------------------|-----------------------------------|
|-------10--7--9b9.5r==(9)-------|-10--7--9b9.5r==(9)----------------|
|--------------------------------|-----------------------------------|
|--------------------------------|-----------------------------------|
|-0-0-0--------------------0-0-0-|--------------------0-0-0-0-0-0----|
|
|              ~~~~~~~~~~~~               ~~~~~~~~~~~~
|--------------------------------|-----------------------------------|
|--------------------------------|-----------------------------------|
|-------14-10-12b12.5r(12)-------|-14-10-12b12.5r(12)----------------|
|--------------------------------|-----------------------------------|
|--------------------------------|-----------------------------------|
|-0-0-0--------------------0-0-0-|--------------------0-0-0-0-0-0----|


  PM--|        ~~~~~~~~~~~~~PM--|          ~~~~~~~~~~~~~PM-----------
|---------------------------------|---------------------------------|
|---------------------------------|---------------------------------|
|-------10--7-[9]b9.5r([9])-------|-10--7-[9]b9.5r([9])-------------|
|---------------------------------|---------------------------------|
|---------------------------------|---------------------------------|
|-8-8-8---------------------8-8-8-|---------------------8-8-8-8-8-8-|
|
| PM--|        ~~~~~~~~~~~~~PM--|          ~~~~~~~~~~~~~PM-----------
|---------------------------------|---------------------------------|
|---------------------------------|---------------------------------|
|-------14-10-12b12.5r(12)--------|-14-10-12b12.5r(12)--------------|
|---------------------------------|---------------------------------|
|---------------------------------|---------------------------------|
|-8-8-8---------------------8-8-8-|---------------------8-8-8-8-8-8-|


 -------|         ~~~~~~~~~~~~ PM---|
|--------------------------------------|---------------------------||
|--------------------------------------|--------------------------o||
|----------10--7--9b9.5r==(9)----------|-10--7--9-6--7-6-----------||
|--------------------------------------|------------------8--7-----||
|--------------------------------------|--------------------------o||
|-10-10-10--------------------10-10-10-|---------------------------||
|
|-------|         ~~~~~~~~~~~~ PM---|
|--------------------------------------|---------------------------||
|--------------------------------------|--------------------------o||
|----------14-10-12b12.5r(12)----------|-14-10-12-9-10-9-----------||
|--------------------------------------|-----------------12-11-----||
|--------------------------------------|--------------------------o||
|-10-10-10--------------------10-10-10-|---------------------------||


  Gtrs I, II
  PM---------------------------------------------------|     PM
|----------------------|-------------|---------------|-------------------|
|----------------------|-------------|---------------|-------------------|
|----------------------|-------------|---------------|-------------------|
|----------------------|-------------|---------------|-------------------|
|-0-0-0-0-0-0-0-0-0----|--0-0-0-0----|--0-0-0-0-0----|---8-5---4-5-7-1-4-|
|-0-0-0-0-0-0-0-0-0----|--0-0-0-0----|--0-0-0-0-0----|-0-----0-----------|


  PM-----------------|    PM----|  PM   PM--------|    PM    PMTPTPTP TP
|----------------------|-------------|---------------|-------------------|
|----------------------|-------------|---------------|-------------------|
|----------------------|-------------|---------------|---------7---------|
|----------------------|-------------|---------------|-----------8-7-11--|
|-0-0-0-0-0-0-0-0-0----|--0-0-0-0----|--0-0-0-0-0----|---4-7-------------|
|-0-0-0-0-0-0-0-0-0----|--0-0-0-0----|--0-0-0-0-0----|-0-----0-----------|


    PM---------------------------|
                                         4x
||-----------------------------|---------||
||o----------------------------|--------o||
||-----------------------------|---------||
||-----------------------------|---------||
||o-0-0-0-0-0-0-0-0-0-(0)-(0)--|-(0)----o||
||--0-0-0-0-0-0-0-0-0-(0)-(0)--|-(0)-----||


  Gtr I
  PM---------------------------------------------------|      PM
|----------------------|---------------|-------------|------------------------|
|----------------------|---------------|-------------|------------------------|
|----------------------|---------------|-------------|------------------------|
|----------------------|---------------|-------------|------------------------|
|-0-0-0-0-0-0-0-0-0----|--0-0-0-0-0----|--0-0-0-0----|----8-5---4-5--7-1-4----|
|-0-0-0-0-0-0-0-0-0----|--0-0-0-0-0----|--0-0-0-0----|-0------0---------------|
|
| Gtr II
| PM---------------------------------------------------|      PM
|----------------------|---------------|-------------|------------------------|
|----------------------|---------------|-------------|------------------------|
|----------------------|---------------|-------------|------------------------|
|----------------------|---------------|-------------|------------------------|
|-0-0-0-0-0-0-0-0-0----|--0-0-0-0-0----|--0-0-0-0----|---12-8---7-8-10-5-7----|
|-0-0-0-0-0-0-0-0-0----|--0-0-0-0-0----|--0-0-0-0----|-0------0---------------|


  PM--------------------------------------------------
|----------------------|---------------|-------------|
|----------------------|---------------|-------------|
|----------------------|---------------|-------------|
|----------------------|---------------|-------------|
|-0-0-0-0-0-0-0-0-0----|--0-0-0-0-0----|--0-0-0-0----|
|-0-0-0-0-0-0-0-0-0----|--0-0-0-0-0----|--0-0-0-0----|
|
| PM--------------------------------------------------
|----------------------|---------------|-------------|
|----------------------|---------------|-------------|
|----------------------|---------------|-------------|
|----------------------|---------------|-------------|
|-0-0-0-0-0-0-0-0-0----|--0-0-0-0-0----|--0-0-0-0----|
|-0-0-0-0-0-0-0-0-0----|--0-0-0-0-0----|--0-0-0-0----|


 -|      PM TP TP TP TP
|----------------------|------------------12-15--|
|----------------------|------------11-14--------|
|-----------7----------|---10--9-----------------|
|--------------8--7-11-|---------11--------------|
|---4--7---------------|-------------------------|
|-0------0-------------|-0-----------------------|
|
|-|      PM TP TP TP TP
|----------------------|-------------------------|
|----------------------|------------------14-17--|
|----------10----------|------------12-15--------|
|-------------12-11-14-|---12-11-----------------|
|---7-10---------------|---------12--------------|
|-0------0-------------|-0-----------------------|


  Q=160
  Gtrs I, II
  PM----------------|
|---------------------|-----------------|
|---------------------|-----------------|
|---------------------|-----------------|
|---------------------|-----5-8-4-7-3-6-|
|-0-0-0-0-0-0-0-0-0-0-|-7-8-------------|
|-0-0-0-0-0-0-0-0-0-0-|-----------------|


  PM----------------|
|---------------------|-------------------|
|---------------------|-------------------|
|---------------------|-------------------|
|---------------------|-----5-8-7-11-8-12-|
|-0-0-0-0-0-0-0-0-0-0-|-7-8---------------|
|-0-0-0-0-0-0-0-0-0-0-|-------------------|


  PM----------------|
|---------------------|-----------------|
|---------------------|-----------------|
|---------------------|-----------------|
|---------------------|-----5-8-4-7-3-6-|
|-0-0-0-0-0-0-0-0-0-0-|-7-8-------------|
|-0-0-0-0-0-0-0-0-0-0-|-----------------|


  PM----------------|
|---------------------|---------------12-15---|
|---------------------|---------11-14---------|
|---------------------|-----------------------|
|---------------------|-----5-8---------------|
|-0-0-0-0-0-0-0-0-0-0-|-7-8-------------------|
|-0-0-0-0-0-0-0-0-0-0-|-----------------------|


  Gtr I
  PM----------------|
|---------------------|---------------------|
|---------------------|---------------------|
|---------------------|---------------------|
|---------------------|-------5--8-4--7-3-6-|
|-0-0-0-0-0-0-0-0-0-0-|--7--8---------------|
|-0-0-0-0-0-0-0-0-0-0-|---------------------|
|
| Gtr II
| PM----------------|
|---------------------|---------------------|
|---------------------|---------------------|
|---------------------|---------------------|
|---------------------|-------8-11-7-10-6-9-|
|-0-0-0-0-0-0-0-0-0-0-|-10-11---------------|
|-0-0-0-0-0-0-0-0-0-0-|---------------------|


  PM----------------|
|---------------------|--------------------------|
|---------------------|--------------------------|
|---------------------|--------------------------|
|---------------------|-------5--8--7-11--8-12---|
|-0-0-0-0-0-0-0-0-0-0-|--7--8--------------------|
|-0-0-0-0-0-0-0-0-0-0-|--------------------------|
|
| PM----------------|
|---------------------|--------------------------|
|---------------------|--------------------------|
|---------------------|--------------------------|
|---------------------|-------8-11-10-14-11-15---|
|-0-0-0-0-0-0-0-0-0-0-|-10-11--------------------|
|-0-0-0-0-0-0-0-0-0-0-|--------------------------|


  PM----------------|
|---------------------|---------------------|
|---------------------|---------------------|
|---------------------|---------------------|
|---------------------|-------5--8-4--7-3-6-|
|-0-0-0-0-0-0-0-0-0-0-|--7--8---------------|
|-0-0-0-0-0-0-0-0-0-0-|---------------------|
|
| PM----------------|
|---------------------|---------------------|
|---------------------|---------------------|
|---------------------|---------------------|
|---------------------|-------8-11-7-10-6-9-|
|-0-0-0-0-0-0-0-0-0-0-|-10-11---------------|
|-0-0-0-0-0-0-0-0-0-0-|---------------------|


  PM----------------|
|---------------------|------------------12-15-|
|---------------------|------------11-14-------|
|---------------------|------------------------|
|---------------------|-------5--8-------------|
|-0-0-0-0-0-0-0-0-0-0-|--7--8------------------|
|-0-0-0-0-0-0-0-0-0-0-|------------------------|
|
| PM----------------|
|---------------------|------------------------|
|---------------------|------------------14-17-|
|---------------------|------------12-15-------|
|---------------------|-------8-11-------------|
|-0-0-0-0-0-0-0-0-0-0-|-10-11------------------|
|-0-0-0-0-0-0-0-0-0-0-|------------------------|


    PM----------|      PM----------|
||-------------------|------------------|
||o------------------|------------------|
||-------------------|------------------|
||-------------------|------------------|
||o-0-0-0-0-0-0-0----|-0-0-0-0-0-0-0----|
||--0-0-0-0-0-0-0----|-0-0-0-0-0-0-0----|
|
|   PM----------|      PM----------|
||-------------------|------------------|
||o------------------|------------------|
||-------------------|------------------|
||-------------------|------------------|
||o-0-0-0-0-0-0-0----|-0-0-0-0-0-0-0----|
||--0-0-0-0-0-0-0----|-0-0-0-0-0-0-0----|


  PM----------|      PM--------|
|------------------|-------------------12-15--||
|------------------|-------------11-14-------o||
|------------------|--------------------------||
|------------------|--------------------------||
|-0-0-0-0-0-0-0----|-0-0-0-0-0-0-------------o||
|-0-0-0-0-0-0-0----|-0-0-0-0-0-0--------------||
|
| PM----------|      PM--------|
|------------------|--------------------------||
|------------------|-------------------14-17-o||
|------------------|-------------12-15--------||
|------------------|--------------------------||
|-0-0-0-0-0-0-0----|-0-0-0-0-0-0-------------o||
|-0-0-0-0-0-0-0----|-0-0-0-0-0-0--------------||


  Gtrs I, II
  PM-------------------------------------------------------------|
|------------------------|------------|------------------------|--------|
|------------------------|------------|------------------------|--------|
|------------------------|------------|------------------------|--------|
|------------------------|------------|------------------------|--------|
|-0-0-0-0-0-0-0-(0)-(0)--|-(0)--------|-0-0-0-0-0-0-0-(0)-(0)--|-(0)----|
|-0-0-0-0-0-0-0-(0)-(0)--|-(0)--------|-0-0-0-0-0-0-0-(0)-(0)--|-(0)----|


  PM-------------------------------------------------------------|
|------------------------|------------|------------------------|--------|
|------------------------|------------|------------------------|--------|
|------------------------|------------|------------------------|--------|
|------------------------|------------|------------------------|--------|
|-0-0-0-0-0-0-0-(0)-(0)--|-(0)--------|-0-0-0-0-0-0-0-(0)-(0)--|-(0)----|
|-1-1-1-1-1-1-1-(1)-(1)--|-(1)--------|-0-0-0-0-0-0-0-(0)-(0)--|-(0)----|


  Q=185
  Gtr I
|-------------------|---------------------------|
|-------------------|---------------------------|
|-------------------|---------------------------|
|-------------------|---------------------------|
|-0-----------------|-(0)-----------------------|
|-0-----------------|-(0)-----------------------|
|
| Gtr II
| PM--|                        PM
|-------------------|---------------------------|
|-------------------|---------------------------|
|-------------------|---------------------------|
|-------------------|--7h8p7p0------------------|
|-------4p0-8p0-5h7-|------------8h10p8p7p0-5h8-|
|-0-0-0-------------|----------0----------------|


|---------------------|------------------------------|
|---------------------|------------------------------|
|---------------------|------------------------------|
|---------------------|------------------------------|
|-(0)-----------------|-(0)--------------------------|
|-(0)-----------------|-(0)--------------------------|
|
|  PM---|                        PM
|---------------------|------------------------------|
|---------------------|------------------------------|
|---------------------|------------------------------|
|---------------------|--7h8p7p0--------------8h12---|
|---------4p0-8p0-5h7-|------------8h10p8p7p0--------|
|--0--0-0-------------|----------0-------------------|


|-------------------|---------------------------|
|-------------------|---------------------------|
|-------------------|---------------------------|
|-------------------|---------------------------|
|-0-----------------|-(0)-----------------------|
|-0-----------------|-(0)-----------------------|
|
| PM--|                        PM
|-------------------|---------------------------|
|-------------------|---------------------------|
|-------------------|---------------------------|
|-------------------|--7h8p7p0------------------|
|-------4p0-8p0-5h7-|------------8h10p8p7p0-7p4-|
|-0-0-0-------------|----------0----------------|


  PM--|   PM  PM      TP  TP  TP
|-------------------|------------|
|-------------------|------------|
|-------------------|------------|
|-------------------|------------|
|-------5---7---5-4-|------------|
|-5-5-5---5---5-----|-8---4---7--|
|
| PM--|   PM  PM      TP  TP  TP
|-------------------|------------|
|-------------------|------------|
|-------------------|------------|
|-------------------|------------|
|-------1---4---1p0-|------------|
|-5-5-5---5---5-----|-8---4---7--|


    Gtr I
    PM--|                            PM
||----------------------|---------------------------------|
||o---------------------|---------------------------------|
||----------------------|---------------------------------|
||----------------------|-10h12p10p0----------------------|
||o-------7p0-12p0-8h10-|--------------12h13p12p10p0-8h12-|
||--0-0-0---------------|------------0--------------------|
|
|   Gtr II
|   PM--|                            PM
||----------------------|---------------------------------|
||o---------------------|---------------------------------|
||----------------------|---------------------------------|
||----------------------|--7h=8p=7p0----------------------|
||o-------4p0--8p0-5h=7-|---------------8h10p=8p=7p0-5h=8-|
||--0-0-0---------------|------------0--------------------|


  PM--|                            PM
|---------------------|-----------------------------------|
|---------------------|-----------------------------------|
|---------------------|-----------------------------------|
|---------------------|-10h12p10p0------------------------|
|-------7p0-12p0-8h10-|--------------12h13p12p10p0-10h13--|
|-0-0-0---------------|------------0----------------------|
|
| PM--|                            PM
|---------------------|-----------------------------------|
|---------------------|-----------------------------------|
|---------------------|-----------------------------------|
|---------------------|--7h=8p=7p0------------------8h12--|
|-------4p0--8p0-5h=7-|---------------8h10p=8p=7p0--------|
|-0-0-0---------------|------------0----------------------|


  PM--|                            PM
|---------------------|---------------------------------|
|---------------------|---------------------------------|
|---------------------|---------------------------------|
|---------------------|-10h12p10p0----------------------|
|-------7p0-12p0-8h10-|--------------12h13p12p10p0-10p7-|
|-0-0-0---------------|------------0--------------------|
|
| PM--|                            PM
|---------------------|---------------------------------|
|---------------------|---------------------------------|
|---------------------|---------------------------------|
|---------------------|--7h=8p=7p0----------------------|
|-------4p0--8p0-5h=7-|---------------8h10p=8p=7p0--7p4-|
|-0-0-0---------------|------------0--------------------|


  PM--|   PM  PM      TP  TP  TP
|-------------------|-------------||
|-------------------|------------o||
|-------------------|-------------||
|-------------------|-------------||
|-------5---7---5-4-|------------o||
|-5-5-5---5---5-----|-8---4---7---||
|
| PM--|   PM  PM      TP  TP  TP
|-------------------|-------------||
|-------------------|------------o||
|-------------------|-------------||
|-------------------|-------------||
|-------1---4---1p0-|------------o||
|-5-5-5---5---5-----|-8---4---7---||


  Gtrs I, II
  TP  TP  TP   TP  TP  TP   TP  TP  TP   TP  TP  TP
|------------|------------|------------|------------|
|------------|------------|------------|------------|
|------------|------------|------------|------------|
|------------|------------|------------|------------|
|------------|------------|------------|------------|
|-8---4---7--|-8---4---7--|-8---4---7--|-8---4---7--|


  TP  TP  TP   TP  TP  TP   TP  TP  TP   TP  TP  TP
|------------|------------|------------|------------|
|------------|------------|------------|------------|
|------------|------------|------------|------------|
|------------|------------|------------|------------|
|------------|------------|------------|------------|
|-7---1---4--|-7---1---4--|-7---1---4--|-7---1---4--|


  TP  TP  TP   TP  TP  TP   TP  TP  TP   TP  TP  TP
|------------|------------|------------|------------|
|------------|------------|------------|------------|
|------------|------------|------------|------------|
|------------|------------|------------|------------|
|------------|------------|------------|------------|
|-8---4---7--|-8---4---7--|-8---4---7--|-8---4---7--|


  TP  TP  TP   TP  TP  TP   TP  TP  TP   TP  TP  TP
|------------|------------|------------|------------|
|------------|------------|------------|------------|
|------------|------------|------------|------------|
|------------|------------|------------|------------|
|------------|------------|------------|------------|
|-7---1---4--|-7---1---4--|-7---1---4--|-7---1---4--|


    Gtrs I, II
                                           PM------------|
||-------------|------------|------------|------------------|
||o------------|------------|------------|------------------|
||-------------|------------|------------|------------------|
||-------------|------------|------------|------------------|
||o-8---4---7--|-8---4---7--|-8---4---7--|-5-5-5-5-5-5-5-5--|
||--8---4---7--|-8---4---7--|-8---4---7--|-6-6-6-6-6-6-6-6--|


                                         PM------------|
|------------|------------|------------|------------------||
|------------|------------|------------|-----------------o||
|------------|------------|------------|------------------||
|------------|------------|------------|------------------||
|-7---1---4--|-7---1---4--|-7---1---4--|-0-0-0-0-0-0-0-0-o||
|-7---1---4--|-7---1---4--|-7---1---4--|-1-1-1-1-1-1-1-1--||


                                        H.=H
            PM------------|             PM------------|
|---------|-----------------|---------|-----------------|
|---------|-----------------|---------|-----------------|
|---------|-----------------|---------|-----------------|
|---------|-----------------|---------|-----------------|
|---------|-0-0-0-0-0-0-0-0-|---------|-0-0-0-0-0-0-0-0-|
|---------|-1-1-1-1-1-1-1-1-|---------|-1-1-1-1-1-1-1-1-|


                                        Q=130
            PM------------|             PM------------|
|---------|-----------------|---------|-----------------|
|---------|-----------------|---------|-----------------|
|---------|-----------------|---------|-----------------|
|---------|-----------------|---------|-----------------|
|---------|-0-0-0-0-0-0-0-0-|---------|-0-0-0-0-0-0-0-0-|
|---------|-1-1-1-1-1-1-1-1-|---------|-1-1-1-1-1-1-1-1-|


  H.=H      Q=110
            PM------------|             PM------------|
|---------|-----------------|---------|-----------------|
|---------|-----------------|---------|-----------------|
|---------|-----------------|---------|-----------------|
|---------|-----------------|---------|-----------------|
|---------|-0-0-0-0-0-0-0-0-|---------|-0-0-0-0-0-0-0-0-|
|---------|-1-1-1-1-1-1-1-1-|---------|-1-1-1-1-1-1-1-1-|


            PM------------|             PM------------|
|---------|-----------------|---------|-----------------*|
|---------|-----------------|---------|-----------------*|
|---------|-----------------|---------|-----------------*|
|---------|-----------------|---------|-----------------*|
|---------|-0-0-0-0-0-0-0-0-|---------|-0-0-0-0-0-0-0-0-*|
|---------|-1-1-1-1-1-1-1-1-|---------|-1-1-1-1-1-1-1-1-*|


Tablature Legend
----------------
 h   - hammer-on
 p   - pull-off
 b   - bend
 pb  - pre-bend
 r   - bend release (if no number after the r, then release immediately)
 /\  - slide into or out of (from/to "nowhere")
 s   - legato slide
 S   - shift slide
  - natural harmonic
[n]  - artificial harmonic
n(n) - tapped harmonic
 ~   - vibrato
 tr  - trill
 T   - tap
 TP  - trem. picking
 PM  - palm muting
\n/  - tremolo bar dip; n = amount to dip
 \n  - tremolo bar down
 n/  - tremolo bar up
/n\  - tremolo bar inverted dip
 =   - hold bend; also acts as connecting device for hammers/pulls
 <>  - volume swell (louder/softer)
 x   - on rhythm slash represents muted slash
 o   - on rhythm slash represents single note slash

Misc Legend
-----------
 |  - bar
||  - double bar
||o - repeat start
o|| - repeat end
*|  - double bar (ending)
 :  - bar (freetime)
 $  - Segno
 &  - Coda
Tempo markers -  = BPM(8/16=s8/s16), where s8 = swing 8ths, s16 = swing 16ths


***************************************************************************************
***************************************************************************************





Comments


Popular I Declare War tabs & chords
As They Burn Alive Tabs
Asphyxiation Tabs
Frosted Or Not I Dont Care Tabs
Fuck Your Claim Tabs
God Has No Place Within These Walls Tabs
Human Waste Tabs
Misery Cloud Tabs
Putrification Of The Populutation Intro Tabs
Rudolph The Red Nosed Reindeer Tabs
Whoop Dat Trick Tabs


Song lyrics



↑ Back to top | Tablatures and chords are parodies/interpretations of the original songs. You may use it for private study, scholarship, research or language learning purposes only
© 2014 AZChords.com Contact us | Privacy policy | DMCA | Add/correct tabs | Request tabs | Top 50 tabs