>
 >
Misery Cloud

Misery Cloud Guitar Tabs

I Declare War - Misery Cloud chords, tabs, tablatures, lyrics

Guitar lessons | Add/correct | Request | Top 50 tabs Artists:  A B C D E F G H I J K L M N O P Q R S T U V W X Y Z 0-9

Misery Cloud Guitar Tabs – I Declare War

CD, Sheet music, Poster

Do you like Misery Cloud? Share with your friends now
Tabs
                                  MISERY CLOUD
                          As recorded by I Declare War
                       (From the 2011 Album I DECLARE WAR)

Words by Jamie Hanks

Music by I Declare War

Gtr I (G# D# G# C# F# A# D#) - 'Chris'
Gtr II (G# D# G# C# F# A# D#) - 'Evan'
Gtr III (G# D# G# C# F# A# D#) - 'Evan'
Gtr IV (G# D# G# C# F# A# D#) - 'Evan'

    Q=115
   4/4
    Gtrs I, II
--------------------------------------------------------------------------|
||--------------------------------------|-----------------------------------|
||--------------------------------------|-----------------------------------|
||o-------------------------------------|-----------------------------------|
||--------------------------------------|-----------------------------------|
||o-------------------------------------|-----------------------------------|
||--2-2-2-2-(2)-2-2-(2)-2-2-(2)-2-2-(2)-|-2-2-2-2-(2)-2-2-(2)-2-2-2-2-2-2-2-|
||--3-3-3-3-(3)-3-3-(3)-3-3-(3)-3-3-(3)-|-3-3-3-3-(3)-3-3-(3)-3-3-3-3-3-3-3-|


----------------------------------------------------------------------|
|-------------------------------------|---------------------------------||
|-------------------------------------|---------------------------------||
|-------------------------------------|--------------------------------o||
|-------------------------------------|---------------------------------||
|-------------------------------------|--------------------------------o||
|-2-2-2-2-(2)-2-2-(2)-2-2-(2)-2-2-(2)-|-2-2-2-2-(2)-2-2-(2)-2-2-2-2-2---||
|-3-3-3-3-(3)-3-3-(3)-3-3-(3)-3-3-(3)-|-3-3-3-3-(3)-3-3-(3)-3-3-3-3-3---||


------------------------------------------------------------------------|
|-------------------------------------|-----------------------------------|
|-------------------------------------|-----------------------------------|
|-------------------------------------|-----------------------------------|
|-------------------------------------|-----------------------------------|
|-------------------------------------|-----------------------------------|
|-0-0-0-0-(0)-0-0-(0)-0-0-(0)-0-0-(0)-|-0-0-0-0-(0)-0-0-(0)-0-0-0-0-0-0-0-|
|-0-0-0-0-(0)-0-0-(0)-0-0-(0)-0-0-(0)-|-0-0-0-0-(0)-0-0-(0)-0-0-0-0-0-0-0-|


--------------------------------------------------------------------|
|-------------------------------------|--------------------------------|
|-------------------------------------|--------------------------------|
|-------------------------------------|--------------------------------|
|-------------------------------------|--------------------------------|
|-------------------------------------|--------------------------------|
|-0-0-0-0-(0)-0-0-(0)-0-0-(0)-0-0-(0)-|-0-0-0-0-(0)-0-0-(0)-0-0-0-0-0--|
|-0-0-0-0-(0)-0-0-(0)-0-0-(0)-0-0-(0)-|-0-0-0-0-(0)-0-0-(0)-0-0-0-0-0--|


------------------------------------------------------------------------|
|-------------------------------------|-----------------------------------|
|-------------------------------------|-----------------------------------|
|-------------------------------------|-----------------------------------|
|-------------------------------------|-----------------------------------|
|-------------------------------------|-----------------------------------|
|-0-0-0-0-(0)-0-0-(0)-0-0-(0)-0-0-(0)-|-0-0-0-0-(0)-0-0-(0)-0-0-0-0-0-0-0-|
|-0-0-0-0-(0)-0-0-(0)-0-0-(0)-0-0-(0)-|-0-0-0-0-(0)-0-0-(0)-0-0-0-0-0-0-0-|


------------------------------------------------------------------|
|-------------------------------------|------------------------------------|
|-------------------------------------|------------------------------------|
|-------------------------------------|------------------------------------|
|-------------------------------------|------------------------------------|
|-------------------------------------|------------------------------------|
|-0-0-0-0-(0)-0-0-(0)-0-0-(0)-0-0-(0)-|-0-0-0-0-(0)-0-0-(0)-0-0-0-0--------|
|-0-0-0-0-(0)-0-0-(0)-0-0-(0)-0-0-(0)-|-0-0-0-0-(0)-0-0-(0)-0-0-0-0-3pb5r==|


  PM-----------------------------------------------|
|-----------|-------------------|----------|------------------|
|-----------|-------------------|----------|------------------|
|-----------|-------------------|----------|------------------|
|-----------|-------------------|----------|------------------|
|-----------|-------------------|----------|------------------|
|-0-------0-|-0-0-0-0-0-0-0---0-|-0--------|-0-0-0-0----------|
|-1-------1-|-1-1-1-1-1-1-1---1-|-1--------|-1-1-1-1--3pb5r===|


  PM-----------------------------------|     PM--|
|-----------|-------------------|----------|----------------|
|-----------|-------------------|----------|----------------|
|-----------|-------------------|----------|----------------|
|-----------|-------------------|----------|-------0-(0)----|
|-----------|-------------------|----------|-------4-(4)----|
|-0-------0-|-0-0-0-0-0-0-0---0-|-0--------|-5-4-1----------|
|-1-------1-|-1-1-1-1-1-1-1---1-|-1--------|-5-4-1----------|


    Gtr I
    PM------------|   PM------------------------|
||------------------------------|----------------------------------|
||------------------------------|----------------------------------|
||o-----------------------------|----------------------------------|
||------------------0-----------|----------------------------------|
||o-----------------4-----------|-----------------8p7-----10p7-----|
||--3-3-(3)-3-3-3-3---3-3-3-3-3-|-3-3-(3)-3-3-3-3-----9p6------9p6-|
||--4-4-(4)-4-4-4-4---4-4-4-4-4-|-4-4-(4)-4-4-4-4------------------|
|
|   Gtr II
|   PM------------|   PM------------------------|
||------------------------------|----------------------------------|
||------------------------------|----------------------------------|
||o-----------------------------|----------------------------------|
||------------------0-----------|----------------------------------|
||o-----------------4-----------|-----------------8p7-----10p7-----|
||--3-3-(3)-3-3-3-3---3-3-3-3-3-|-3-3-(3)-3-3-3-3-----9p6------9p6-|
||--4-4-(4)-4-4-4-4---4-4-4-4-4-|-4-4-(4)-4-4-4-4------------------|


  PM------------|   PM----------|  TPTPTP TPTPTP TP
|-----------------------------|---------------------||
|-----------------------------|---------------------||
|-----------------------------|--------------------o||
|-----------------0-----------|---11--------7-6-----||
|-----------------4-----------|------8-----------8-o||
|-3-3-(3)-3-3-3-3---3-3-3-3-3-|-3------9-10---------||
|-4-4-(4)-4-4-4-4---4-4-4-4-4-|-4-------------------||
|
| PM------------|   PM----------|  TPTPTP TPTPTP TP
|-----------------------------|---------------------||
|-----------------------------|---------------------||
|-----------------------------|--------------------o||
|-----------------0-----------|----8----------------||
|-----------------4-----------|------5------9-8----o||
|-3-3-(3)-3-3-3-3---3-3-3-3-3-|-3------6--7-----10--||
|-4-4-(4)-4-4-4-4---4-4-4-4-4-|-4-------------------||


    Gtrs I, II
    PM--|            PM--|     PM----------|            PM--|     PM--|
||-----------------|-----------------|----------------|-------------------||
||-----------------|-----------------|----------------|-------------------||
||o----------------|-----------------|----------------|------------------o||
||--------0-(0)----|-----------------|-------0-(0)----|-------------------||
||o-------4-(4)----|-----------------|-------4-(4)----|------------------o||
||--5-4-1----------|-5-4-1-8-7-5-4-1-|-5-4-1----------|-5-4-1-8-7-5-4-1---||
||--5-4-1----------|-5-4-1-8-7-5-4-1-|-5-4-1----------|-5-4-1-8-7-5-4-1---||


    Gtrs I, II
    PM-----------------------------------
||--------------------------------------|
||--------------------------------------|
||o-------------------------------------|
||--------------------------------------|
||o-------------------------------------|
||--0-0-0-------------------------------|
||--0-0-0-------------------------------|
|
|   Gtr III
||--------------------------------------|
||--------------------------------------|
||o-------------------------------------|
||--------------------------------------|
||o-8p==7-----10p7-----8p7-----10p7-----|
||--------9p6------9p6-----9p6------9p6-|
||--------------------------------------|


 -----------------------------|
|-------------------------------------------||
|-------------------------------------------||
|------------------------------------------o||
|-------------------------------------------||
|------------------------------------------o||
|-0-0-0----------0-0-0-0--------------------||
|-0-0-0----------0-0-0-0--------------------||
|
|-------------------------------------------||
|-------------------------------------------||
|------------------------------------------o||
|-------------------------------------------||
|-8p==7-----10p7---------8p=7-----10p7-----o||
|-------9p6------9p==6--------9p6------9p6--||
|-------------------------------------------||


  Gtrs I, II
  PM-------------------------------------------------------|
|-----------------------------------|-----------------------------------|
|-----------------------------------|-----------------------------------|
|-----------------------------------|-----------------------------------|
|-----------------------------------|-----------------------------------|
|-----------------------------------|-----------------------------------|
|-0-0-0-----------------------------|-0-0-0------0-0-0-0----------------|
|-0-0-0-----------------------------|-0-0-0------0-0-0-0----------------|
|
| Gtr III
|-----------------------------------|-----------------------------------|
|-----------------------------------|-----------------------------------|
|-----------------------------------|-----------------------------------|
|-----------------------------------|-----------------------------------|
|-8p7-----10p7-----8p7-----10p7-----|-8p7-----10p7-----8p7-----10p7-----|
|-----9p6------9p6-----9p6------9p6-|-----9p6------9p6-----9p6------9p6-|
|-----------------------------------|-----------------------------------|
|
| Gtr IV
|-----------------------------------|-----------------------------------|
|-----------------------------------|-----------------------------------|
|-----------------------------------|-----------------------------------|
|-8---------------------------------|-7----------------4----------------|
|-----------------------------------|-----------------------------------|
|-6---------------------------------|-5----------------2----------------|
|-----------------------------------|-----------------------------------|


  PM-----------------------------------
|-------------------------------------|
|-------------------------------------|
|-------------------------------------|
|-------------------------------------|
|-------------------------------------|
|-0-0-0-------------------------------|
|-0-0-0-------------------------------|
|
|-------------------------------------|
|-------------------------------------|
|-------------------------------------|
|-------------------------------------|
|-8p==7-----10p7-----8p7-----10p7-----|
|-------9p6------9p6-----9p6------9p6-|
|-------------------------------------|
|
|-------------------------------------|
|-------------------------------------|
|-------------------------------------|
|-8-----------------------------------|
|-------------------------------------|
|-6-----------------------------------|
|-------------------------------------|


 -----------------------------|
|-------------------------------------------|
|-------------------------------------------|
|-------------------------------------------|
|-------------------------------------------|
|-------------------------------------------|
|-0-0-0----------0-0-0-0-----------0--------|
|-0-0-0----------0-0-0-0-----------0--------|
|
|-------------------------------------------|
|-------------------------------------------|
|-------------------------------------------|
|-------------------------------------------|
|-8p==7-----10p7---------8p=7-----10p7------|
|-------9p6------9p==6--------9p6------9p6--|
|-------------------------------------------|
|
|-------------------------------------------|
|-------------------------------------------|
|-------------------------------------------|
|-7----------------------4------------------|
|-------------------------------------------|
|-5----------------------2------------------|
|-------------------------------------------|


  Gtrs I, II
  TPTPTPTPTPTPTPTP  TPTPTPTPTPTPTP
|-----------------|----------------|
|-----------------|----------------|
|-----------------|----------------|
|-----------------|----------------|
|-----------------|----------------|
|-----------------|----------------|
|-5-4-1-8-7-5-4-5-|-5-4-1-8-7-5-4--|


  TPTPTPTPTPTPTPTP    PM----|   PM----|
|-----------------|---------------------------------------|
|-----------------|---------------------------------------|
|-----------------|---------------------------------------|
|-----------------|---------------------------------------|
|-----------------|---------------------8p7-----10p7------|
|-----------------|-1---------4-------------9p6------9p6--|
|-5-4-1-8-7-5-4-5-|-1-0-0-0-0-4-0-0-0-0-------------------|


  Gtr I
  TPTPTPTPTPTPTPTP  TPTPTP TP TPTPTP
|-----------------|------------------|
|-----------------|------------------|
|-----------------|------------------|
|-----------------|------------------|
|-5-4-1-8-7-5-4-5-|-5-4-1--8--7-5-4--|
|-----------------|------------------|
|-----------------|------------------|
|
| Gtr II
| TPTPTPTPTPTPTPTP  TPTPTP TP TPTPTP
|-----------------|------------------|
|-----------------|------------------|
|-----------------|------------------|
|-----------------|------------------|
|-5-4-1-8-7-5-4-5-|-5-4-1-12-10-8-7--|
|-----------------|------------------|
|-----------------|------------------|


  Gtrs I, II
  TPTPTPTPTPTPTPTP    PM----|   PM----|
|-----------------|---------------------------------------|
|-----------------|---------------------------------------|
|-----------------|---------------------------------------|
|-----------------|---------------------------------------|
|-5-4-1-8-7-5-4-5-|---------------------8p7-----10p7------|
|-----------------|-1---------4-------------9p6------9p6--|
|-----------------|-1-0-0-0-0-4-0-0-0-0-------------------|


  Q=105
  PM-------------------------------------------------|
|-------------|-------------|-------------|-------------|
|-------------|-------------|-------------|-------------|
|-------------|-------------|-------------|-------------|
|-------------|-------------|-------------|-------------|
|-------------|-------------|-------------|-------------|
|-5--4--1--8--|-7--5--4--5--|-5--4--1--8--|-7--5--4--5--|
|-5--4--1--8--|-7--5--4--5--|-5--4--1--8--|-7--5--4--5--|


  TP TP TP TP   TP TP TP TP   TP TP TP TP   TP TP
|-------------|-------------|-------------|-------------------|
|-------------|-------------|-------------|-------------------|
|-------------|-------------|-------------|-------------------|
|-------------|-------------|-------------|-------------------|
|-------------|-------------|-------------|-------------------|
|-------------|-------------|-------------|-------[7]b9--(7)--|
|-5--4--1--8--|-7--5--4--5--|-5--4--1--8--|-7--5--------------|


    Q=115
    PM------------|   PM------------------------|
||------------------------------|----------------------------------|
||------------------------------|----------------------------------|
||o-----------------------------|----------------------------------|
||------------------0-----------|----------------------------------|
||o-----------------4-----------|-----------------8p7-----10p7-----|
||--3-3-(3)-3-3-3-3---3-3-3-3-3-|-3-3-(3)-3-3-3-3-----9p6------9p6-|
||--4-4-(4)-4-4-4-4---4-4-4-4-4-|-4-4-(4)-4-4-4-4------------------|


  Gtr I
  PM------------|   PM----------|  TPTPTP TPTPTP TP
|-----------------------------|---------------------||
|-----------------------------|---------------------||
|-----------------------------|--------------------o||
|-----------------0-----------|---11--------7-6-----||
|-----------------4-----------|------8-----------8-o||
|-3-3-(3)-3-3-3-3---3-3-3-3-3-|-3------9-10---------||
|-4-4-(4)-4-4-4-4---4-4-4-4-4-|-4-------------------||
|
| Gtr II
| PM------------|   PM----------|  TPTPTP TPTPTP TP
|-----------------------------|---------------------||
|-----------------------------|---------------------||
|-----------------------------|--------------------o||
|-----------------0-----------|----8----------------||
|-----------------4-----------|------5------9-8----o||
|-3-3-(3)-3-3-3-3---3-3-3-3-3-|-3------6--7-----10--||
|-4-4-(4)-4-4-4-4---4-4-4-4-4-|-4-------------------||


    Gtrs I, II
    PM------------------------------------------------------|
||------------------------------|------------------------------||
||------------------------------|------------------------------||
||o-----------------------------|-----------------------------o||
||------------------------------|------------------------------||
||o-----------------------------|-----------------------------o||
||--3-3-(3)-3-3-3-3-3-3-3-3-3-3-|-3-3-(3)-3-3-3-3-3-3-3-3-3-3--||
||--4-4-(4)-4-4-4-4-4-4-4-4-4-4-|-4-4-(4)-4-4-4-4-4-4-4-4-4-4--||


    PM------------------------------------------------------|
||------------------------------|------------------------------||
||------------------------------|------------------------------||
||o-----------------------------|-----------------------------o||
||------------------------------|------------------------------||
||o-----------------------------|-----------------------------o||
||--1-1-(1)-1-1-1-1-1-1-1-1-1-1-|-1-1-(1)-1-1-1-1-1-1-1-1-1-1--||
||--2-2-(2)-2-2-2-2-2-2-2-2-2-2-|-2-2-(2)-2-2-2-2-2-2-2-2-2-2--||


  PM-----------------------------------------------|
|-----------|-------------------|----------|------------------|
|-----------|-------------------|----------|------------------|
|-----------|-------------------|----------|------------------|
|-----------|-------------------|----------|------------------|
|-----------|-------------------|----------|------------------|
|-0-------0-|-0-0-0-0-0-0-0---0-|-0--------|-0-0-0-0----------|
|-0-------0-|-0-0-0-0-0-0-0---0-|-0--------|-1-1-1-1--3pb5r===|


  PM-----------------------------------------------|
|-----------|-------------------|----------|------------|
|-----------|-------------------|----------|------------|
|-----------|-------------------|----------|------------|
|-----------|-------------------|----------|----------0-|
|-----------|-------------------|----------|----------4-|
|-0-------0-|-0-0-0-0-0-0-0---0-|-0--------|-0-0-0-0----|
|-0-------0-|-0-0-0-0-0-0-0---0-|-0--------|-1-1-1-1----|


|------------|--------*|
|------------|--------*|
|------------|--------*|
|-(0)--------|-(0)----*|
|-(4)--------|-(4)----*|
|------------|--------*|
|------------|--------*|


Tablature Legend
----------------
 h   - hammer-on
 p   - pull-off
 b   - bend
 pb  - pre-bend
 r   - bend release (if no number after the r, then release immediately)
 /\  - slide into or out of (from/to "nowhere")
 s   - legato slide
 S   - shift slide
  - natural harmonic
[n]  - artificial harmonic
n(n) - tapped harmonic
 ~   - vibrato
 tr  - trill
 T   - tap
 TP  - trem. picking
 PM  - palm muting
\n/  - tremolo bar dip; n = amount to dip
 \n  - tremolo bar down
 n/  - tremolo bar up
/n\  - tremolo bar inverted dip
 =   - hold bend; also acts as connecting device for hammers/pulls
 <>  - volume swell (louder/softer)
 x   - on rhythm slash represents muted slash
 o   - on rhythm slash represents single note slash

Misc Legend
-----------
 |  - bar
||  - double bar
||o - repeat start
o|| - repeat end
*|  - double bar (ending)
 :  - bar (freetime)
 $  - Segno
 &  - Coda
Tempo markers -  = BPM(8/16=s8/s16), where s8 = swing 8ths, s16 = swing 16ths


***************************************************************************************
***************************************************************************************





Comments


Popular I Declare War tabs & chords
Amidst The Bloodshed Tabs
Asphyxiation Tabs
Destroy The Weak Tabs
Frosted Or Not I Dont Care Tabs
God Has No Place Within These Walls Tabs
Purification Of The Population Intro Tabs
Putrification Of The Population Intro Tabs
Putrification Of The Populutation Intro Tabs
Rudolph The Red Nosed Reindeer Tabs
Through The Eyes Of The Killer Tabs


Song lyrics



↑ Back to top | Tablatures and chords are parodies/interpretations of the original songs. You may use it for private study, scholarship, research or language learning purposes only
© 2014 AZChords.com Contact us | Privacy policy | DMCA | Add/correct tabs | Request tabs | Top 50 tabs