» » »

I Declare War, God Has No Place Within These Walls Tabs (ver.1)

Artists:  A B C D E F G H I J K L M N O P Q R S T U V W X Y Z # 

God Has No Place Within These Walls Tabs (ver.1)

I Declare War Tabs
 Rating:
4/5 (4 votes)
God Has No Place Within These Walls lessons Tabs too difficult? Try these video lessons and learn fast
1
                                       GOD HAS NO PLACE WITHIN THESE WALLS
                          As recorded by I Declare War
                   (From the 2007 Album AMIDST THE BLOODSHED)

Words and Music by I Declare War
Arranged by I Declare War

Gtr I (A# F A# D# G C) - 'Jake Paulson'
Gtr II (A# F A# D# G C) - 'Evan Hughes'

    Q=160
   4/4
    Gtrs I, II
||---------------|------------------|
||o--------------|------------------|
||---------------|------------------|
||---------------|------------------|
||o-0------------|-(0)------0--0--0-|
||--0------------|-(0)------1--1--1-|


                                  4x
|--------------|------------------||
|--------------|-----------------o||
|--------------|------------------||
|--------------|------------------||
|-0------------|-(0)------0------o||
|-0------------|-(0)------0-------||


  Q=160
 4/4
  Gtr II
  PM--------------------------------------
|----------------------|-----------------|
|----------------------|-----------------|
|----------------------|-----------------|
|----------------------|-----------------|
|-0-0-0-0--0-0--0-0--0-|-0-0-0-0--0--0---|
|-0-0-0-0--0-0--0-0--0-|-0-0-0-0--0--0---|


 --------------------------------------|
|----------------------|------------------|
|----------------------|------------------|
|----------------------|------------------|
|----------------------|------------------|
|-0-0-0-0--0-0--0-0--0-|-0-0-0-0--0--0----|
|-0-0-0-0--0-0--0-0--0-|-0-0-0-0--0--0----|


  Gtrs I, II
  PM--------------------------------------
|----------------------|-----------------|
|----------------------|-----------------|
|----------------------|-----------------|
|----------------------|-----------------|
|-0-0-0-0--0-0--0-0--0-|-0-0-0-0--0--0---|
|-0-0-0-0--0-0--0-0--0-|-0-0-0-0--0--0---|


 -----------------------------------|
|----------------------|----------------|
|----------------------|----------------|
|----------------------|----------------|
|----------------------|----------------|
|-0-0-0-0--0-0--0-0--0-|-0-0-0-0--0-----|
|-0-0-0-0--0-0--0-0--0-|-0-0-0-0--0-----|


    PM--------------------------------------
||-----------------------|-----------------|
||o----------------------|-----------------|
||-----------------------|-----------------|
||-----------------------|-----------------|
||o-0-0-0-0--0-0--0-0--0-|-0-0-0-0--0--0---|
||--0-0-0-0--0-0--0-0--0-|-0-0-0-0--0--0---|


 --------------------------------------|
|----------------------|--------------------||
|----------------------|-------------------o||
|----------------------|--------------------||
|----------------------|--------------------||
|-0-0-0-0--0-0--0-0--0-|-0-0-0-0--0--0-----o||
|-0-0-0-0--0-0--0-0--0-|-0-0-0-0--0--0------||


    PM----------------------------------------
||------------------------|------------------|
||o-----------------------|------------------|
||------------------------|------------------|
||------------------------|------------------|
||o-0-0-(0)-0-(0)-0-(0)-0-|-0-0-0-0-0-(0)----|
||--0-0-(0)-0-(0)-0-(0)-0-|-0-0-0-0-0-(0)----|


 -----------------------------------|
|-----------------------|-------------------||
|-----------------------|------------------o||
|-----------------------|-------------------||
|-----------------------|-------------------||
|-0-0-(0)-0-(0)-0-(0)-0-|-0-0-0-0-0-(0)----o||
|-0-0-(0)-0-(0)-0-(0)-0-|-0-0-0-0-0-(0)-----||


  Q=170
    PM|   PM    PM    PM      PM          PM|   PM    PM  TP TP TP TP
|-----------------|-------------------|-----------------|-------------|
|-----------------|-------------------|-----------------|-------------|
|-----------------|-------------------|-----------------|-------------|
|-----------------|-------------5p4---|-----------------|-------------|
|-0-----1---6p5---|-----------------6-|-0-----1---6-5---|----5-----4--|
|-0-0-0-1-0-----0-|-8-0-7h8p7-0-------|-0-0-0-1-0-----0-|-8-----7-----|


    PM|   PM    PM    PM      PM          PM|   PM    PM  TP TP   TP   ~~~~
|-----------------|-------------------|-----------------|------------------|
|-----------------|-------------------|-----------------|------------------|
|-----------------|-------------------|-----------------|------------------|
|-----------------|-------------5p4---|-----------------|-8--7--/12--[11]--|
|-0-----1---6p5---|-----------------6-|-0-----1---6p5---|------------------|
|-0-0-0-1-0-----0-|-8-0-7h8p7-0-------|-0-0-0-1-0-----0-|------------------|


  Gtr I
    PM|   PM    PM    PM      PM          PM|   PM    PM  TP TP TP TP
|-----------------|-------------------|-----------------|-------------|
|-----------------|-------------------|-----------------|-------------|
|-----------------|-------------------|-----------------|-------------|
|-----------------|-------------5p4---|-----------------|-------------|
|-0-----1---6p5---|-----------------6-|-0-----1---6-5---|----5-----4--|
|-0-0-0-1-0-----0-|-8-0-7h8p7-0-------|-0-0-0-1-0-----0-|-8-----7-----|
|
| Gtr II
|   PM|   PM    PM    PM      PM          PM|   PM    PM  TP TP TP TP
|-----------------|-------------------|-----------------|-------------|
|-----------------|-------------------|-----------------|-------------|
|-----------------|-------------------|-----------------|-------------|
|-----------4p3---|-------------8p7---|-----------4p3---|-------------|
|-0-----1---------|-5---4h5p4-------9-|-0-----1---------|-5--8--4--7--|
|-0-0-0-1-0-----0-|---0-------0-------|-0-0-0-1-0-----0-|-------------|


    PM|   PM    PM    PM      PM          PM|   PM    PM
|-----------------|-------------------|-----------------|
|-----------------|-------------------|-----------------|
|-----------------|-------------------|-----------------|
|-----------------|-------------5p4---|-----------------|
|-0-----1---6p5---|-----------------6-|-0-----1---6p5---|
|-0-0-0-1-0-----0-|-8-0-7h8p7-0-------|-0-0-0-1-0-----0-|
|
|   PM|   PM    PM    PM      PM          PM|   PM    PM
|-----------------|-------------------|-----------------|
|-----------------|-------------------|-----------------|
|-----------------|-------------------|-----------------|
|-----------4p3---|-------------8p7---|-----------4p3---|
|-0-----1---------|-5---4h5p4-------9-|-0-----1---------|
|-0-0-0-1-0-----0-|---0-------0-------|-0-0-0-1-0-----0-|


   TP TP   TP  TP                  ~~
|-----------------|--------------------|
|-----------------|--------------------|
|-----------------|--------------------|
|--8--7--/12--11--|-/15--14--/19--18---|
|-----------------|--------------------|
|-----------------|--------------------|
|
|  TP TP   TP  TP                  ~~
|-----------------|--------------------|
|-----------------|--------------------|
|-----------------|--------------------|
|-----------------|--------------------|
|-10--8--/13--12--|-/17--16--/20--19---|
|-----------------|--------------------|


    Q=160
    Gtr I
    PM----------------------------------------------------------|
||--------------------|-------------|-------------------|----------------||
||o-------------------|-------------|-------------------|---------------o||
||--------------------|-------------|-------------------|----------------||
||--------------------|-------------|-------------------|----------------||
||o-0-0-0--0--0-0-0-0-|-0-0-0--0----|-0-0-0--0--0-0-0-0-|-0-0-0---1-----o||
||--0-0-0--0--0-0-0-0-|-0-0-0--0----|-0-0-0--0--0-0-0-0-|-0-0-0---1------||
|
|   Gtr II
|   PM----------------------------------------------------------| ~~~
||--------------------|-------------|-------------------|----------------||
||o-------------------|-------------|-------------------|---------------o||
||--------------------|-------------|-------------------|----------------||
||--------------------|-------------|-------------------|----------------||
||o-0-0-0--0--0-0-0-0-|-0-0-0--0----|-0-0-0--0--0-0-0-0-|-0-0-0--[6]----o||
||--0-0-0--0--0-0-0-0-|-0-0-0--0----|-0-0-0--0--0-0-0-0-|-0-0-0----------||


    Gtrs I, II
    PM----------------------------------------
||--------------------------|----------------|
||o-------------------------|----------------|
||--------------------------|----------------|
||--------------------------|----------------|
||o-0-0-0-(0)-0-(0)-0-0-0-0-|-0-0-0-(0)-0----|
||--0-0-0-(0)-0-(0)-0-0-0-0-|-0-0-0-(0)-1----|


 ---------------------------------|
|-------------------------|------------------||
|-------------------------|-----------------o||
|-------------------------|------------------||
|-------------------------|------------------||
|-0-0-0-(0)-0-(0)-0-0-0-0-|-0-0-0-(0)-0-----o||
|-0-0-0-(0)-0-(0)-0-0-0-0-|-0-0-0-(0)-1------||


  Q=177
  Gtr II                    Gtrs I, II
  PM|   PM    PM    PM  PM|
|-----------------|-------------------------|
|-----------------|-------------------------|
|-----------------|-------------------------|
|-----------------|-------------------------|
|-----1---3-1---6-|---5-----3h6p3h6-2h5p2h5-|
|-0-0-1-0-3-1-0---|-0---0-0-----------------|


  PM|   PM    PM    PM  PM|
|-----------------|-------------------------|
|-----------------|-------------------------|
|-----------------|-------------------------|
|-----------------|-------------------------|
|-----1---3-1---6-|---5-----3h6p3h6-2h5p2h5-|
|-0-0-1-0-3-1-0---|-0---0-0-----------------|


  PM|   PM    PM    PM  PM|
|-----------------|----------------------------|
|-----------------|----------------------------|
|-----------------|----------------------------|
|-----------------|----------------------------|
|-----1---3-1---9-|---8-----6h9p6h9-5h8p5h8----|
|-0-0-1-0-3-1-0---|-0---0-0--------------------|


  PM|   PM    PM    PM  PM|                   PM|   PM    PM|   TP TP TP TP
|-----------------|-------------------------|-----------------|--------------|
|-----------------|-------------------------|-----------------|--------------|
|-----------------|-------------------------|-----------------|--------------|
|-----------------|-------------------------|-----------------|--------------|
|-----1---3-1---6-|---5-----3h6p3h6-2h5p2h5-|-----1---3-1-----|----3-----5---|
|-0-0-1-0-3-1-0---|-0---0-0-----------------|-0-0-1-0-3-1-0-0-|-1-----4------|


    Gtr I
    PM|   PM    PM    PM  PM|
||------------------|-------------------------|
||o-----------------|-------------------------|
||------------------|-------------------------|
||------------------|-------------------------|
||o-----1---3-1---6-|---5-----3h6p3h6-2h5p2h5-|
||--0-0-1-0-3-1-0---|-0---0-0-----------------|
|
|   Gtr II
|   PM|   PM    PM    PM  PM|
||------------------|-------------------------|
||o-----------------|-------------------------|
||------------------|-------------------------|
||------------------|-------------------------|
||o-----1---3-1---9-|---8-----6h9p6h9-5h8p5h8-|
||--0-0-1-0-3-1-0---|-0---0-0-----------------|


  PM|   PM    PM    PM  PM|
|-----------------|---------------------------|
|-----------------|---------------------------|
|-----------------|---------------------------|
|-----------------|---------------------------|
|-----1---3-1---9-|---8-----6h9p6h9-5h8p5h8---|
|-0-0-1-0-3-1-0---|-0---0-0-------------------|
|
| PM|   PM    PM    PM  PM|
|-----------------|---------------------------|
|-----------------|---------------------------|
|-----------------|---------------------------|
|---------------7-|---6-----4h7p4h7-3h6p3h6---|
|-----1---3-1-----|---------------------------|
|-0-0-1-0-3-1-0---|-0---0-0-------------------|


  PM|   PM    PM    PM  PM|                   PM|   PM    PM|   TP TP TP TP
|-----------------|-------------------------|-----------------|---------------||
|-----------------|-------------------------|-----------------|--------------o||
|-----------------|-------------------------|-----------------|---------------||
|-----------------|-------------------------|-----------------|---------------||
|-----1---3-1---6-|---5-----3h6p3h6-2h5p2h5-|-----1---3-1-----|----3-----5---o||
|-0-0-1-0-3-1-0---|-0---0-0-----------------|-0-0-1-0-3-1-0-0-|-1-----4-------||
|
| PM|   PM    PM    PM  PM|                   PM|   PM    PM|   TP TP TP TP
|-----------------|-------------------------|-----------------|---------------||
|-----------------|-------------------------|-----------------|--------------o||
|-----------------|-------------------------|-----------------|---------------||
|-----------------|-------------------------|-----------------|---------------||
|-----1---3-1---9-|---8-----6h9p6h9-5h8p5h8-|-----1---3-1-----|----3-----5---o||
|-0-0-1-0-3-1-0---|-0---0-0-----------------|-0-0-1-0-3-1-0-0-|-1-----4-------||


  Gtrs I, II
  PM|   PM    PM    PM          PM|   PM    PM
|-----------------|-----------|-----------------|-----|
|-----------------|-----------|-----------------|-----|
|-----------------|-----------|-----------------|-----|
|-----------------|-----------|-----------------|-----|
|-----1---3-1---1-|---1-------|-----1---3-1---0-|-----|
|-0-0-1-0-3-1-0-1-|-0-1-------|-0-0-1-0-3-1-0-0-|-----|


  PM|   PM    PM    PM          PM|   PM    PM|   TP TP TP TP
|-----------------|-----------|-----------------|--------------|
|-----------------|-----------|-----------------|--------------|
|-----------------|-----------|-----------------|--------------|
|-----------------|-----------|-----------------|--------------|
|-----1---3-1---1-|---1-------|-----1---3-1-----|----3-----5---|
|-0-0-1-0-3-1-0-1-|-0-1-------|-0-0-1-0-3-1-0-0-|-1-----4------|


  Gtr I
  TP  TP  TP   ~~~~~~~~~~          ~~~~~~
|-----------------|-----------------------|-----*|
|-----------------|-----------------------|-----*|
|-----------------|-----------------------|-----*|
|-----------------|-----------------------|-----*|
|-----6-----------|--------------------0--|-----*|
|-5-------7--/15--|-(15)----(15)-(15)\-0--|-----*|
|
| Gtr II
| TP  TP  TP   ~~~~~~~~~~~~~~~~~~
|-----------------|-----------------------|-----*|
|-----------------|-----------------------|-----*|
|-----------------|-----------------------|-----*|
|-----------------|-----------------------|-----*|
|----10-----------|--------------------0--|-----*|
|-8------10---18--|-(18)----(18)-(18)\-0--|-----*|


Tablature Legend
----------------
 h   - hammer-on
 p   - pull-off
 b   - bend
 pb  - pre-bend
 r   - bend release (if no number after the r, then release immediately)
 /\  - slide into or out of (from/to "nowhere")
 s   - legato slide
 S   - shift slide
  - natural harmonic
[n]  - artificial harmonic
n(n) - tapped harmonic
 ~   - vibrato
 tr  - trill
 T   - tap
 TP  - trem. picking
 PM  - palm muting
\n/  - tremolo bar dip; n = amount to dip
 \n  - tremolo bar down
 n/  - tremolo bar up
/n\  - tremolo bar inverted dip
 =   - hold bend; also acts as connecting device for hammers/pulls
 <>  - volume swell (louder/softer)
 x   - on rhythm slash represents muted slash
 o   - on rhythm slash represents single note slash

Misc Legend
-----------
 |  - bar
||  - double bar
||o - repeat start
o|| - repeat end
*|  - double bar (ending)
 :  - bar (freetime)
 $  - Segno
 &  - Coda
Tempo markers -  = BPM(8/16=s8/s16), where s8 = swing 8ths, s16 = swing 16ths


***************************************************************************************
***************************************************************************************
            
Submit corrections

comments powered by Disqus
↑ Back to top | I Declare War Tabs for God Has No Place Within These Walls. Lyrics for acoustic guitar and electric guitar. 1 Tablatures and chords are parodies/interpretations of the original songs. You may use it for private study, scholarship, research or language learning purposes only