» » »

I Declare War, Frosted Or Not I Dont Care Tabs (ver.1)

Artists:  A B C D E F G H I J K L M N O P Q R S T U V W X Y Z # 

Frosted Or Not I Dont Care Tabs (ver.1)

I Declare War Tabs
 Rating:
4/5 (4 votes)
Frosted Or Not I Dont Care lessons Tabs too difficult? Try these video lessons and learn fast
                                          FROSTED OR NOT (I DON'T CARE)
                          As recorded by I Declare War
                   (From the 2007 Album AMIDST THE BLOODSHED)

Words and Music by I Declare War
Arranged by I Declare War

Gtr I (A# F A# D# G C) - 'Jake Paulson'
Gtr II (A# F A# D# G C) - 'Evan Hughes'

  Q=180                    Q=180
 4/4
  Gtr II                   Gtrs I, II
                           TP  TP  TP
|----10-9-8-7----------||-------------|
|-------------10-9-8---||o------------|
|-7--------------------||-------------|
|----------------------||-------------|
|----------------------||o-----6------|
|----------------------||--8-------8--|


  TP  TP  TP    TP  TP   TP   TP  TP  TP
|------------|--------------|---------------||
|------------|--------------|--------------o||
|------------|--------------|---------------||
|------------|--------------|---------------||
|---------4--|-10---9---10--|-6---5---6----o||
|-4---5------|--------------|---------------||


    Gtr I
    TP  TP  TP   TP  TP  TP    TP  TP   TP   TP  TP  TP
||-------------|------------|--------------|--------------||
||o------------|------------|--------------|-------------o||
||-------------|------------|--------------|--------------||
||-------------|------------|--------------|--------------||
||o-----6------|---------4--|-10---9---10--|-6---5---6---o||
||--8-------8--|-4---5------|--------------|--------------||
|
|   Gtr II
|   TP  TP  TP   TP  TP  TP    TP  TP   TP   TP  TP  TP
||-------------|------------|--------------|--------------||
||o------------|------------|--------------|-------------o||
||-------------|------------|--------------|--------------||
||------4------|------------|--8---7----8--|-4---3---4----||
||o-5-------5--|---------7--|--------------|-------------o||
||-------------|-7---8------|--------------|--------------||


    Gtrs I, II
||--------------|------------|---------------|--------------||
||o-------------|------------|---------------|-------------o||
||--------------|---------6--|-12---11---12--|-8---7---8----||
||--8---13---8--|-4---5------|---------------|--------------||
||o-------------|---------4--|-10----9---10--|-6---5---6---o||
||--8---13---8--|-4---5------|---------------|--------------||


    Gtr I
||--------------|------------|---------------|-----------------||
||o-------------|------------|---------------|----------------o||
||--------------|---------6--|-12---11---12--|--8----7----8----||
||--8---13---8--|-4---5------|---------------|-----------------||
||o-------------|---------4--|-10----9---10--|--6----5----6---o||
||--8---13---8--|-4---5------|---------------|-----------------||
|
|   Gtr II
||--------------|------------|---------------|-----------------||
||o-------------|------------|---------------|----------------o||
||--7---11---7--|---------9--|-15---14---15--|-11---10---11----||
||--------------|-7---8------|---------------|-----------------||
||o-5----9---5--|---------7--|-13---12---13--|--9----8----9---o||
||--------------|-7---8------|---------------|-----------------||


  Q.=180
 12/8
  Gtrs I, II
                                                                     4x
|-------------||--------------------------|--------------------------||
|-------------||o-------------------------|-------------------------o||
|-------------||--------------------------|--------------------------||
|-------------||--------------------------|--------------------------||
|-------------||o-------------------------|-------------------------o||
|-------------||--1-0-0-2-0-0-1-0-0-3-0-0-|-1-0-0-4-0-0-1-0-0-3-0-0--||


    Q=210
   4/4
||--------------------------------------|
||o-------------------------------------|
||--------------------------------------|
||--------------------------------------|
||o-------9-9-------9-9-----------------|
||--10-10-----10-10-----4-4-5-5-4-4-5-5-|


                                       4x
|--------------------------------------||
|-------------------------------------o||
|--------------------------------------||
|--------------------------------------||
|-9-9-10-10-9-9-10-10-5-5-6-6-5-5-6-6-o||
|--------------------------------------||


    Q=190
||---------------|--------------------------------|
||o--------------|--------20-19-17-16-------------|
||---------------|--------------------20-19-17-16-|
||---------------|--------------------------------|
||o-0----1----0--|---1----------------------------|
||--1--0-2--0-1--|-0-2--0-------------------------|


                1.
|--------------|--------------------20-19-17-16--||
|--------------|--------20-19-17-16-------------o||
|--------------|---------------------------------||
|--------------|---------------------------------||
|-0----1----0--|---1----------------------------o||
|-1--0-2--0-1--|-0-2--0--------------------------||


  2.          Q=180
|-----------|----10-9-8-7----------|----------*|
|-----------|-------------10-9-8---|----------*|
|-----------|-7--------------------|----------*|
|-----------|----------------------|----------*|
|---1-------|----------------------|-0--------*|
|-0-2-------|----------------------|-1--------*|


Tablature Legend
----------------
 h   - hammer-on
 p   - pull-off
 b   - bend
 pb  - pre-bend
 r   - bend release (if no number after the r, then release immediately)
 /\  - slide into or out of (from/to "nowhere")
 s   - legato slide
 S   - shift slide
  - natural harmonic
[n]  - artificial harmonic
n(n) - tapped harmonic
 ~   - vibrato
 tr  - trill
 T   - tap
 TP  - trem. picking
 PM  - palm muting
\n/  - tremolo bar dip; n = amount to dip
 \n  - tremolo bar down
 n/  - tremolo bar up
/n\  - tremolo bar inverted dip
 =   - hold bend; also acts as connecting device for hammers/pulls
 <>  - volume swell (louder/softer)
 x   - on rhythm slash represents muted slash
 o   - on rhythm slash represents single note slash

Misc Legend
-----------
 |  - bar
||  - double bar
||o - repeat start
o|| - repeat end
*|  - double bar (ending)
 :  - bar (freetime)
 $  - Segno
 &  - Coda
Tempo markers -  = BPM(8/16=s8/s16), where s8 = swing 8ths, s16 = swing 16ths


***************************************************************************************
***************************************************************************************
            
Submit corrections

comments powered by Disqus
↑ Back to top | I Declare War Tabs for Frosted Or Not I Dont Care. Lyrics for acoustic guitar and electric guitar. Tablatures and chords are parodies/interpretations of the original songs. You may use it for private study, scholarship, research or language learning purposes only