» » »

I Declare War, As They Burn Alive Tabs (ver.1)

Artists:  A B C D E F G H I J K L M N O P Q R S T U V W X Y Z # 

As They Burn Alive Tabs (ver.1)

I Declare War Tabs
 Rating:
4.2/5 (5 votes)
As They Burn Alive lessons Tabs too difficult? Try these video lessons and learn fast
1
                                               AS THEY BURN ALIVE
                          As recorded by I Declare War
                   (From the 2007 Album AMIDST THE BLOODSHED)

Words by Jake Paulson

Music by I Declare War
Arranged by I Declare War

Gtr I (A# F A# D# G C) - 'Jake Paulson'
Gtr II (A# F A# D# G C) - 'Evan Hughes'

  Q=167
 4/4
  Gtrs I, II
  PM-------------------------------------------
|-----------------||--------------------------|
|-----------------||o-------------------------|
|-----------------||--------------------------|
|-----------------||--------------------------|
|-0-5-4-0-4-1-0-1-||o-1-1-1-0-0-0-0-0-0-0-0-0-|
|-0-5-4-0-4-1-0-1-||--1-1-1-0-0-0-0-0-0-0-0-0-|


 -----------------------------------------------------------|
|-------------------------|-------------------------|------------------||
|-------------------------|-------------------------|-----------------o||
|-------------------------|-------------------------|------------------||
|-------------------------|-------------------------|------------------||
|-0-0-0-0-0-0-0-0-0-0-0-0-|-1-1-1-0-0-0-0-0-0-0-0-0-|---------5-4-1-0-o||
|-0-0-0-0-0-0-0-0-0-0-0-0-|-1-1-1-0-0-0-0-0-0-0-0-0-|-1-0-5-4----------||


   4/4
    Gtr I
    PM-------------------------------------------------
||--------------------------|-------------------------|
||o-------------------------|-------------------------|
||--------------------------|-------------------------|
||--------------------------|-------------------------|
||o-1-1-1-0-0-0-0-0-0-0-0-0-|-0-0-0-0-0-0-0-0-0-0-0-0-|
||--1-1-1-0-0-0-0-0-0-0-0-0-|-0-0-0-0-0-0-0-0-0-0-0-0-|
|
|   Gtr II
|   PM-------------------------------------------------
||--------------------------|-------------------------|
||o-------------------------|-------------------------|
||--------------------------|-------------------------|
||--------------------------|-------------------------|
||o-1-1-1-0-0-0-0-0-0-0-0-0-|-0-0-0-0-0-0-0-0-0-0-0-0-|
||--1-1-1-0-0-0-0-0-0-0-0-0-|-0-0-0-0-0-0-0-0-0-0-0-0-|


 ---------------------------------|
|-------------------------|------------------||
|-------------------------|-----------------o||
|-------------------------|------------------||
|-------------------------|------------------||
|-1-1-1-0-0-0-0-0-0-0-0-0-|---------5-4-1-0-o||
|-1-1-1-0-0-0-0-0-0-0-0-0-|-1-0-5-4----------||
|
|---------------------------------|
|-------------------------|------------------||
|-------------------------|-----------------o||
|-------------------------|------------------||
|-------------------------|------------------||
|-1-1-1-0-0-0-0-0-0-0-0-0-|---------8-7-5-4-o||
|-1-1-1-0-0-0-0-0-0-0-0-0-|-5-4-8-7----------||


                               2/4
    Gtrs I, II
                                PM------------|
                                                  4x
||-----------|----------------|-------------------||
||o----------|----------------|------------------o||
||-----------|----------------|-------------------||
||-----------|----------------|-------------------||
||o-0--------|-(0)------------|-1-1-1-1-1-1-1-1--o||
||--0--------|-(0)------------|-1-1-1-1-1-1-1-1---||


               Q=120
 4/4
               PM----------------------------------------
                                                       3x
|----------||----------------|-------------------------||
|----------||o---------------|------------------------o||
|----------||----------------|-------------------------||
|----------||----------------|-------------------------||
|-0--------||o-0--0-0-0--0-0-|-(0)-0-0-0-0-(0)-0--0-0-o||
|-0--------||--1--1-1-1--1-1-|-(1)-1-1-1-1-(1)-1--1-1--||


 ------------------------------------|
|---------------|-----------------------|
|---------------|-----------------------|
|---------------|-----------------------|
|---------------|-----------------------|
|-0--0-0-0--0-0-|-(0)-0-0-0-0-(0)-0--0--|
|-1--1-1-1--1-1-|-(1)-1-1-1-1-(1)-1--1--|


    Q=170
                               2/4
                                PM------------|
||-----------|----------------|-------------------||
||o----------|----------------|------------------o||
||-----------|----------------|-------------------||
||-----------|----------------|-------------------||
||o-0--------|-(0)------------|-1-1-1-1-1-1-1-1--o||
||--0--------|-(0)------------|-1-1-1-1-1-1-1-1---||


 4/4
             PM----------------------|                PM------|
|----------|-----------------|-----------------|------------------|
|----------|-----------------|-----------------|------------------|
|----------|-----------------|-----------------|------------------|
|----------|-----------------|-----------------|------------------|
|-0--------|-0-0-0-0-0-0-0-0-|-0-0-0-0-5-4-0-1-|-(1)--1-1-1-1-1-4-|
|-0--------|-0-0-0-0-0-0-0-0-|-0-0-0-0-5-4-0-1-|-(1)--1-1-1-1-1-4-|


      PM|       PM--|      PM-----------------
|---------------------|----------------------|
|---------------------|----------------------|
|---------------------|----------------------|
|---------------------|----------------------|
|-(4)-4-4-1-(1)-1-1-1-|-0--0-0-0-0-0-0-0-0-0-|
|-(4)-4-4-1-(1)-1-1-1-|-0--0-0-0-0-0-0-0-0-0-|


 -----------|                PM--------|
|---------------------|--------------------|
|---------------------|--------------------|
|---------------------|--------------------|
|---------------------|--------------------|
|-0-0-0-0-0-0-5-4-0-1-|-(1)--1-1-1-1-1-1-4-|
|-0-0-0-0-0-0-5-4-0-1-|-(1)--1-1-1-1-1-1-4-|


                           PM------------------|                PM------|
|---------------------|----------------|-----------------|-------------------|
|---------------------|----------------|-----------------|-------------------|
|---------------------|----------------|-----------------|-------------------|
|---------------------|----------------|-----------------|-------------------|
|-(4)-4-4-1-(1)-1-1-1-|-0--0-0-0-0-0-0-|-0-0-0-0-5-4-0-1-|-(1)--1-1-1-1-1-4--|
|-(4)-4-4-1-(1)-1-1-1-|-0--0-0-0-0-0-0-|-0-0-0-0-5-4-0-1-|-(1)--1-1-1-1-1-4--|


      PM|       PM--|      PM-----------------
|---------------------|----------------------|
|---------------------|----------------------|
|---------------------|----------------------|
|---------------------|----------------------|
|-(4)-4-4-1-(1)-1-1-1-|-0--0-0-0-0-0-0-0-0-0-|
|-(4)-4-4-1-(1)-1-1-1-|-0--0-0-0-0-0-0-0-0-0-|


 -----------|                PM--------|
|---------------------|--------------------|
|---------------------|--------------------|
|---------------------|--------------------|
|---------------------|--------------------|
|-0-0-0-0-0-0-5-4-0-1-|-(1)--1-1-1-1-1-1-4-|
|-0-0-0-0-0-0-5-4-0-1-|-(1)--1-1-1-1-1-1-4-|


      PM|       PM--|
|---------------------|----------|------------|------------|--------|
|---------------------|----------|------------|------------|--------|
|---------------------|----------|------------|------------|--------|
|---------------------|----------|------------|------------|--------|
|-(4)-4-4-1-(1)-1-1-1-|-0--------|-(0)--------|-(0)--------|-(0)----|
|-(4)-4-4-1-(1)-1-1-1-|-0--------|-(0)--------|-(0)--------|-(0)----|


|------------|------------|------------|-----|
|------------|------------|------------|-----|
|------------|------------|------------|-----|
|------------|------------|------------|-----|
|-(0)--------|-(0)--------|-(0)--------|-----|
|-(0)--------|-(0)--------|-(0)--------|-----|


  TP TP TP TP   TP TP TP TP   TP TP TP TP   TP TP TP TP
|-------------|-------------|-------------|--------------|
|-------------|-------------|-------------|--------------|
|-------------|-------------|-------------|--------------|
|-------------|-------------|-------------|--------------|
|-------------|-------------|-------------|--------------|
|-0--4--1--0--|-5--4--0--4--|-0--4--1--0--|-1--0--1--0---|


  Gtr I
  TP TP TP TP   TP TP TP TP   TP TP TP TP   TP TP TP TP
|-------------|-------------|-------------|--------------|
|-------------|-------------|-------------|--------------|
|-------------|-------------|-------------|--------------|
|-------------|-------------|-------------|--------------|
|-------------|-------------|-------------|--------------|
|-0--4--1--0--|-5--4--0--4--|-0--4--1--0--|-1--0--1--0---|
|
| Gtr II
| TP TP TP TP   TP TP TP TP   TP TP TP TP   TP TP TP TP
|-------------|-------------|-------------|--------------|
|-------------|-------------|-------------|--------------|
|-------------|-------------|-------------|--------------|
|-------------|-------------|-------------|--------------|
|-------------|-------------|-------------|--------------|
|-0--4--1--4--|-8--7--5--7--|-0--4--1--0--|-1--0--1--0---|


    Gtrs I, II
    PM-------------------------------------------------
||--------------------------|-------------------------|
||o-------------------------|-------------------------|
||--------------------------|-------------------------|
||--------------------------|-------------------------|
||o-0-0-0-0-0-0-0-0-0-0-0-0-|-0-0-0-0-0-0-0-0-0-0-0-0-|
||--0-0-0-0-0-0-0-0-0-0-0-0-|-0-0-0-0-0-0-0-0-0-0-0-0-|


 -----------------------------------------|
|-------------------------|--------------------||
|-------------------------|-------------------o||
|-------------------------|--------------------||
|-------------------------|--------------------||
|-0-0-0-0-0-0-0-0-0-0-0-0-|-0-4-1-0-5-4-0-4---o||
|-0-0-0-0-0-0-0-0-0-0-0-0-|-0-4-1-0-5-4-0-4----||


    PM----------|            PM------------------|      PM------------|
||-------------------|-------------|------------------|------------------||
||o------------------|-------------|------------------|-----------------o||
||-------------------|-------------|------------------|------------------||
||-------------------|-------------|------------------|------------------||
||o-0-0-0-0-0-0-0----|-------0-0-0-|-0-0-0-0-0-0-0----|-0-4-1-0-5-4-0-4-o||
||--0-0-0-0-0-0-0----|-------0-0-0-|-0-0-0-0-0-0-0----|-0-4-1-0-5-4-0-4--||


    PM------------------------------------------
||-------------------------|-------------------|
||o------------------------|-------------------|
||-------------------------|-------------------|
||-------------------------|-------------------|
||o-0-0-0-0-0-0-0-(0)-(0)--|-(0)----(0)--0-0-0-|
||--1-1-1-1-1-1-1-(1)-(1)--|-(1)----(1)--1-1-1-|


 ----------------------------------------|
|------------------------|------------------||
|------------------------|-----------------o||
|------------------------|------------------||
|------------------------|------------------||
|-0-0-0-0-0-0-0-(0)-(0)--|-0-4-1-0-5-4-0-4-o||
|-1-1-1-1-1-1-1-(1)-(1)--|-0-4-1-0-5-4-0-4--||


  Gtrs I, II
|----------|-----*|
|----------|-----*|
|----------|-----*|
|----------|-----*|
|-0--------|-----*|
|-0--------|-----*|


Tablature Legend
----------------
 h   - hammer-on
 p   - pull-off
 b   - bend
 pb  - pre-bend
 r   - bend release (if no number after the r, then release immediately)
 /\  - slide into or out of (from/to "nowhere")
 s   - legato slide
 S   - shift slide
  - natural harmonic
[n]  - artificial harmonic
n(n) - tapped harmonic
 ~   - vibrato
 tr  - trill
 T   - tap
 TP  - trem. picking
 PM  - palm muting
\n/  - tremolo bar dip; n = amount to dip
 \n  - tremolo bar down
 n/  - tremolo bar up
/n\  - tremolo bar inverted dip
 =   - hold bend; also acts as connecting device for hammers/pulls
 <>  - volume swell (louder/softer)
 x   - on rhythm slash represents muted slash
 o   - on rhythm slash represents single note slash

Misc Legend
-----------
 |  - bar
||  - double bar
||o - repeat start
o|| - repeat end
*|  - double bar (ending)
 :  - bar (freetime)
 $  - Segno
 &  - Coda
Tempo markers -  = BPM(8/16=s8/s16), where s8 = swing 8ths, s16 = swing 16ths


***************************************************************************************
***************************************************************************************
            
Submit corrections

comments powered by Disqus
↑ Back to top | I Declare War Tabs for As They Burn Alive. Lyrics for acoustic guitar and electric guitar. 1 Tablatures and chords are parodies/interpretations of the original songs. You may use it for private study, scholarship, research or language learning purposes only