>
 >
Asphyxiation

Asphyxiation Guitar Tabs

I Declare War - Asphyxiation chords, tabs, tablatures, lyrics

Guitar lessons | Add/correct | Request | Top 50 tabs Artists:  A B C D E F G H I J K L M N O P Q R S T U V W X Y Z 0-9

Asphyxiation Guitar Tabs – I Declare War

CD, Sheet music, Poster

Do you like Asphyxiation? Share with your friends now
Tabs
                                  ASPHYXIATION
                          As recorded by I Declare War
                   (From the 2007 Album AMIDST THE BLOODSHED)

Words and Music by I Declare War
Arranged by I Declare War

Gtr I (A# F A# D# G C) - 'Jake Paulson'
Gtr II (A# F A# D# G C) - 'Evan Hughes'
Gtr III (A# F A# D# G C) - 'Untitled'
Gtr IV (A# F A# D# G C) - 'Untitled'

  Q=187
 4/4
  Gtr I
    PM|   PM  PM        PM-----|
|-----------------|-------------------|-----------------|-------------------|
|-----------------|-------------------|-----------------|-------------------|
|-----------------|-------------------|-----------------|-------------------|
|-----------------|-------------------|-----------------|-------------------|
|-0-----7---8---4h|=5p4---8-10-7------|-0---------------|-(0)---------------|
|-0-0-0---0---0---|-----7--------8-11-|-0---------------|-(0)---------------|
|
| Gtr II
|   PM|   PM  PM        PM-----|          PM|   PM  PM         PM----|
|-----------------|-------------------|-----------------|-------------------|
|-----------------|-------------------|-----------------|-------------------|
|-----------------|-------------------|-----------------|-------------------|
|-----------------|-------------------|-----------------|-------------------|
|-0-----7---8---4h|=5p4---8-10-7------|-0-----7---8---4h|==5p4--------------|
|-0-0-0---0---0---|-----7--------8-11-|-0-0-0---0---0---|------8-7-5-4-1-3--|


    PM|   PM  PM        PM-----|          PM|   PM  PM
|-----------------|-------------------|-----------------|------------------|
|-----------------|-------------------|-----------------|------------------|
|-----------------|-------------------|-----------------|------------------|
|-----------------|-------------------|-----------------|---8-7------------|
|-0-----7---8---4h|=5p4---8-10-7------|-0-----7---8---4-|-7-----8-10-8-4-5-|
|-0-0-0---0---0---|-----7--------8-11-|-0-0-0---0---0---|------------------|
|
|   PM|   PM  PM                          PM|   PM  PM
|-----------------|-------------------|-----------------|------------------|
|-----------------|-------------------|-----------------|------------------|
|-----------------|-------------------|-----------------|---7--------------|
|---------------2-|-3-2---7-----------|-------5---7---3-|-5---3-0--2-0-2-3-|
|-0-----3---5-----|-----5----7-3-5--7-|-0---------------|------------------|
|-0-0-0---0---0---|-------------------|-0-0-0---0---0---|------------------|


    PM|   PM  PM        PM-----|          PM|   PM  PM        PM----|
|-----------------|-------------------|-----------------|-----------------|
|-----------------|-------------------|-----------------|-----------------|
|-----------------|-------------------|-----------------|-----------------|
|-----------------|-------------------|-----------------|-----------------|
|-0-----7---8---4h|=5p4---8-10-7------|-0-----7---8---4h|=5p4-------------|
|-0-0-0---0---0---|-----7--------8-11-|-0-0-0---0---0---|-----8-7-5-4-1-3-|
|
|   PM|   PM  PM        PM-----|          PM|   PM  PM        PM----|
|-----------------|-------------------|-----------------|-----------------|
|-----------------|-------------------|-----------------|-----------------|
|-----------------|-------------------|-----------------|-----------------|
|-----------------|-------------------|-----------------|-----------------|
|-0-----7---8---4h|=5p4---8-10-7------|-0-----7---8---4h|=5p4-------------|
|-0-0-0---0---0---|-----7--------8-11-|-0-0-0---0---0---|-----8-7-5-4-1-3-|


    PM|   PM  PM        PM-----|          PM|   PM  PM
|-----------------|-------------------|-----------------|------------------|
|-----------------|-------------------|-----------------|------------------|
|-----------------|-------------------|-----------------|------------------|
|-----------------|-------------------|-----------------|---8-7------------|
|-0-----7---8---4h|=5p4---8-10-7------|-0-----7---8---4-|-7-----8-10-8-4-5-|
|-0-0-0---0---0---|-----7--------8-11-|-0-0-0---0---0---|------------------|
|
|   PM|   PM  PM                          PM|   PM  PM
|-----------------|-------------------|-----------------|------------------|
|-----------------|-------------------|-----------------|------------------|
|-----------------|-------------------|-----------------|---7--------------|
|---------------2-|-3-2---7-----------|-------5---7---3-|-5---3-0--2-0-2-3-|
|-0-----3---5-----|-----5----7-3-5--7-|-0---------------|------------------|
|-0-0-0---0---0---|-------------------|-0-0-0---0---0---|------------------|


  PM--------|          PM--|
|----------------------------|----------------------------|
|----------------------------|----------------------------|
|----------------------------|----------------------------|
|----------------------------|----------------------------|
|----------------------------|----------------------------|
|-0-0-0-0-0-0----------0-0-0-|-------------11-11-11-------|
|
|                              PM--------|          PM--|
|----------------------------|----------------------------|
|----------------------------|----------------------------|
|----------------------------|----------------------------|
|----------------------------|----------------------------|
|----------------------------|----------------------------|
|-------------11-11-11-------|-0-0-0-0-0-0----------0-0-0-|


  PM--------|          PM--|     PM--|          PM--|
|----------------------------|------------------------|
|----------------------------|------------------------|
|----------------------------|------------------------|
|----------------------------|------------------------|
|----------------------------|------------------------|
|-0-0-0-0-0-0----------0-0-0-|---0-0-0-11-11-11-0-0-0-|
|
|                                PM--|          PM--|
|----------------------------|------------------------|
|----------------------------|------------------------|
|----------------------------|------------------------|
|----------------------------|----------8--8--8-------|
|----------------------------|------------------------|
|-------------11-11-11-------|---0-0-0----------0-0-0-|


    PM--------|          PM----------------|          PM-----
||-----------------------------|----------------------------|
||o----------------------------|----------------------------|
||-----------------------------|----------------------------|
||-----------------------------|----------------------------|
||o----------------------------|----------------------------|
||--0-0-0-0-0-0-11-11-11-0-0-0-|-0-0-0-0-0-0-11-11-11-0-0-0-|
|
|   PM--------|          PM----------------|          PM-----
||-----------------------------|----------------------------|
||o----------------------------|----------------------------|
||-----------------------------|----------------------------|
||-----------------------------|----------------------------|
||o----------------------------|--------------7--7--7-------|
||--0-0-0-0-0-0-11-11-11-0-0-0-|-0-0-0-0-0-0----------0-0-0-|


 -----------|          PM--|
|----------------------------|----------------------||
|----------------------------|---------------------o||
|----------------------------|----------------------||
|----------------------------|---8-7----------------||
|----------------------------|-7-----8-10-8-4-5----o||
|-0-0-0-0-0-0-11-11-11-0-0-0-|----------------------||
|
|-----------|          PM--|
|----------------------------|----------------------||
|----------------------------|---------------------o||
|----------------------------|---7------------------||
|--------------8--8--8-------|-5---3-0--2-0-2-3-----||
|----------------------------|---------------------o||
|-0-0-0-0-0-0----------0-0-0-|----------------------||


    PM--------|  ~~~     PM--------|
||---------------------|-------------------|
||o--------------------|-------------------|
||---------------------|-------------------|
||---------------------|-------------------|
||o--------------------|-------------3\----|
||--0-0-0-0-0-0-[3]----|-0-0-0-0-0-0-3\----|
|
|   PM--------|          PM--------|
||---------------------|-------------------|
||o--------------------|-------------------|
||---------------------|-------------------|
||---------------------|-------------------|
||o--------------7\----|-------------3\----|
||--0-0-0-0-0-0--7\----|-0-0-0-0-0-0-3\----|


  PM--------|  ~~~     PM--------|
|--------------------|-----------------------||
|--------------------|----------------------o||
|--------------------|-----------------------||
|--------------------|-----------------------||
|--------------------|-------------8h10-4h5-o||
|-0-0-0-0-0-0-[3]----|-0-0-0-0-0-0-----------||
|
| PM--------|          PM--------|
|--------------------|-----------------------||
|--------------------|----------------------o||
|--------------------|-----------------------||
|--------------------|-----------------------||
|--------------7\----|-------------5h=7-7h8-o||
|-0-0-0-0-0-0--7\----|-0-0-0-0-0-0-----------||


    Gtrs I, II
      PM|   PM          PM|   PM
||------------------|-----------------|
||o-----------------|-----------------|
||------------------|-----------------|
||--------8---7h8p7-|-------7---5h7p5-|
||o-0---------------|-8---------------|
||--0-0-0---0-------|-8-8-8---8-------|


    PM|   PM
|------------------|-------------------------||
|------------------|------------------------o||
|------------------|-------------------------||
|-------8---7h8h10-|-/12-10-8-10-8h10p8-7-8--||
|-5----------------|------------------------o||
|-5-5-5---5--------|-------------------------||


  Gtr I
    PM|    PM           PM|   PM
|-------------------|-----------------|
|-------------------|-----------------|
|-------------------|-----------------|
|--------8---7h=8p7-|-------7---5h7p5-|
|-0-----------------|-8---------------|
|-0-0-0----0--------|-8-8-8---8-------|
|
| Gtr II
|   PM|    PM           PM|   PM
|-------------------|-----------------|
|-------------------|-----------------|
|-------------------|-----------------|
|-------------------|-----------------|
|-0-----10---8h10p8-|-8-----8---7h8p7-|
|-0-0-0----0--------|-8-8-8---8-------|


    PM|   PM
|------------------|-------------------------|
|------------------|-------------------------|
|------------------|-------------------------|
|-------8---7h8h10-|-/12-10-8-10-8h10p8-7-8--|
|-5----------------|-------------------------|
|-5-5-5---5--------|-------------------------|
|
|   PM|   PM
|------------------|-------------------------|
|------------------|-------------------------|
|------------------|-------------------------|
|-------5---3h5h=7-|--/8--7-5--7-5h=7p5-3-5--|
|-5----------------|-------------------------|
|-5-5-5---5--------|-------------------------|


                                                           Gtr III
    PM|    PM           PM|   PM          PM|   PM         TP
|-------------------|-----------------|------------------|-------|
|-------------------|-----------------|------------------|-------|
|-------------------|-----------------|------------------|-------|
|--------8---7h=8p7-|-------7---5h7p5-|-------8---7h8h10-|-------|
|-0-----------------|-8---------------|-5----------------|-x\----|
|-0-0-0----0--------|-8-8-8---8-------|-5-5-5---5--------|-x\----|
|
|                                                          Gtr IV
|   PM|    PM           PM|   PM          PM|   PM         TP
|-------------------|-----------------|------------------|-------|
|-------------------|-----------------|------------------|-------|
|-------------------|-----------------|------------------|-------|
|-------------------|-----------------|-------5---3h5h=7-|-------|
|-0-----10---8h10p8-|-8-----8---7h8p7-|-5----------------|-x\----|
|-0-0-0----0--------|-8-8-8---8-------|-5-5-5---5--------|-x\----|


    Gtrs I, II
||---------------------|------------------|
||o--------------------|------------------|
||------------10-10-10-|-10-9-9-9-9-9-9---|
||---------------------|------------------|
||o-0-0-0-0-0--8--8--8-|--8-7-7-7-7-7-7-0-|
||--0-0-0-0-0----------|----------------0-|


|--------------------|--------------------------||
|--------------------|-------------------------o||
|-----------10-10-10-|-10-12-12-12-12-12-12-----||
|--------------------|--------------------------||
|-8-8-8-8-8--8--8--8-|--8-10-10-10-10-10-10-0--o||
|-8-8-8-8-8----------|----------------------0---||


    Gtr I
||---------------------|------------------------|
||o--------------------|------------------------|
||------------10-10-10-|-10--9--9--9--9--9--9---|
||---------------------|------------------------|
||o-0-0-0-0-0--8--8--8-|--8--7--7--7--7--7--7-0-|
||--0-0-0-0-0----------|----------------------0-|
|
|   Gtr II
||---------------------|------------------------|
||o--------------------|------------------------|
||------------14-14-14-|-14-12-12-12-12-12-12---|
||---------------------|------------------------|
||o-0-0-0-0-0-12-12-12-|-12-10-10-10-10-10-10-0-|
||--0-0-0-0-0----------|----------------------0-|


 1.
|-------------------------|--------------------------||
|-------------------------|-------------------------o||
|----------------10-10-10-|-10-12-12-12-12-12-12-----||
|-------------------------|--------------------------||
|--8--8--8--8--8--8--8--8-|--8-10-10-10-10-10-10-0--o||
|--8--8--8--8--8----------|----------------------0---||
|
|-------------------------|--------------------------||
|-------------------------|-------------------------o||
|----------------14-14-14-|-14-15-15-15-15-15-15-----||
|-10-10-10-10-10----------|--------------------------||
|--8--8--8--8--8-12-12-12-|-12-13-13-13-13-13-13-0--o||
|--8--8--8--8--8----------|----------------------0---||


  2.
  Gtrs I, II
|-----------------|-------------------|--------|
|-----------------|-------------------|--------|
|-----------------|-------------------|--------|
|------10-10------|-------------------|--------|
|-8-8---8--8--8-8-|--3-3b3.5-(3)-0----|-(0)----|
|-8-8---8--8--8-8-|--3-3b3.5-(3)-0----|-(0)----|


  Q.=160
 12/8
  Gtr I
|-------------------------|-------------------------|
|-------------------------|-------------------------|
|-------------------------|-------------------------|
|-------------------------|-------------8-7-5-7-5---|
|-5-5-5-8-5-5-7-5-5-0-0-0-|-5-5-5-8-5-5-----------8-|
|-------------------------|-------------------------|
|
| Gtr II
|-------------------------|-------------------------|
|-------------------------|-------------------------|
|-------------------------|-------------------------|
|-------------------------|-------------8-7-5-7-5---|
|-5-5-5-8-5-5-7-5-5-0-0-0-|-5-5-5-8-5-5-----------8-|
|-------------------------|-------------------------|


                          Q.=130
|-------------------------|--------------------------|
|-------------------------|--------------------------|
|-------------------------|--------------------------|
|-------------------------|--------------------------|
|-5-5-5-8-5-5-7-5-5-0-0-0-|-0------------------------|
|-------------------------|-0------------------------|
|
|-------------------------|--------------------------|
|-------------------------|--------------------------|
|-------------------------|--------------------------|
|-------------------------|-8-7-5-7-5---5------------|
|-5-5-5-8-5-5-7-5-5-0-0-0-|-----------9---9-6-9-6-5--|
|-------------------------|--------------------------|


 12/8
  PM------------|               PM----------|
|-----------------------------|----------------------------|
|-----------------------------|----------------------------|
|-----------------------------|----------------------------|
|-----------------------------|----------------------------|
|-0-0-0-0-0-0-0-0-------------|-0-0-0-0-0-0-0--------------|
|-0-0-0-0-0-0-0-0-------------|-0-0-0-0-0-0-0--------------|
|
| PM------------|               PM----------------|  ~~~
|-----------------------------|----------------------------|
|-----------------------------|----------------------------|
|-----------------------------|----------------------------|
|-----------------------------|----------------------------|
|-----------------9-6-5-6-5-3-|---------------9-6-5-[6]----|
|-0-0-0-0-0-0-0-0-------------|-0-0-0-0-0-0-0--------------|


  PM------------|               PM----------|
|-----------------------------|-----------------------------|
|-----------------------------|-----------------------------|
|-----------------------------|-----------------------------|
|-----------------------------|-----------------------------|
|-0-0-0-0-0-0-0-0-------------|-0-0-0-0-0-0-0----------8\---|
|-0-0-0-0-0-0-0-0-------------|-0-0-0-0-0-0-0----------8\---|
|
| PM------------|               PM----------|          ~~~~
|-----------------------------|-----------------------------|
|-----------------------------|-----------------------------|
|-----------------------------|-----------------------------|
|-----------------------------|---------------/8-7-8-/12----|
|-----------------9-6-5-6-5-3-|-----------------------------|
|-0-0-0-0-0-0-0-0-------------|-0-0-0-0-0-0-0---------------|


  PM------------|               PM----------|        ~~~
|-----------------------------|---------------------------|
|-----------------------------|---------------------------|
|-----------------------------|---------------------------|
|-----------------------------|---------------------------|
|-----------------9-6-5-6-5-3-|---------------9-6-5-[6]---|
|-0-0-0-0-0-0-0-0-------------|-0-0-0-0-0-0-0-------------|
|
| PM------------|               PM----------|        ~~~
|-----------------------------|---------------------------|
|-----------------------------|---------------------------|
|-----------------------------|---------------------------|
|-----------------7-5-4-5-4---|---------------7-5-4-------|
|---------------------------6-|---------------------[6]---|
|-0-0-0-0-0-0-0-0-------------|-0-0-0-0-0-0-0-------------|


  PM------------|               PM----------|           ~~~
|-----------------------------|-----------------------------|
|-----------------------------|-----------------------------|
|-----------------------------|-----------------------------|
|-----------------------------|---------------/8-7--8-/12---|
|-----------------9-6-5-6-5-3-|-----------------------------|
|-0-0-0-0-0-0-0-0-------------|-0-0-0-0-0-0-0---------------|
|
| PM------------|               PM----------|           ~~~
|-----------------------------|-----------------------------|
|-----------------------------|-----------------------------|
|-----------------------------|-----------------------------|
|-----------------7-5-4-5-4---|-----------------------------|
|---------------------------6-|---------------10-8-10--10---|
|-0-0-0-0-0-0-0-0-------------|-0-0-0-0-0-0-0---------------|


    PM------------|          PM----------|        ~~~
                                                         4x
||-------------------------|-----------------------------||
||o------------------------|----------------------------o||
||-------------------------|-----------------------------||
||-------------------------|-----------------------------||
||o-----------------0------|---------------9-6-5-[6]----o||
||--0-0-0-0-0-0-0-0-0------|-0-0-0-0-0-0-0---------------||
|
|   PM------------|          PM----------|        ~~~
|                                                        4x
||-------------------------|-----------------------------||
||o------------------------|----------------------------o||
||-------------------------|-----------------------------||
||-------------------------|---------------7-5-4---------||
||o-----------------0------|---------------------[6]----o||
||--0-0-0-0-0-0-0-0-0------|-0-0-0-0-0-0-0---------------||


    Q=190
   4/4
    Gtr II
||----------------------------------|--------------------------------||
||o---------------------------------|-------------------------------o||
||----------------------------------|--------------------------------||
||----------------------------------|--------------------------------||
||o---------------------------------|-----------------------------6-o||
||--0-0-0-0-0-0-0-0-0-0-0-0-0-0-0-0-|-0-0-0-0-0-0-0-0-0-0-0-0-0-0----||


|-------------------------------|-------------------------------|
|-------------------------------|-------------------------------|
|-------------------------------|-------------------------------|
|-------------------------------|-------------------------------|
|-----------------------------6-|-----------------------------6-|
|-0-0-0-0-0-0-0-0-0-0-0-0-0-0---|-0-0-0-0-0-0-0-0-0-0-0-0-0-0---|


  Gtr I
|-----------------------------|------------------------------|
|-----------------------------|------------------------------|
|-----------------------------|------------------------------|
|-----------------------------|------------------------------|
|-------------6-------------6-|-------------6-------------6--|
|-0-0-0-0-0-0---0-0-0-0-0-0---|-0-0-0-0-0-0---0-0-0-0-0-0----|
|
| Gtr II
|-----------------------------|------------------------------|
|-----------------------------|------------------------------|
|-----------------------------|------------------------------|
|-----------------------------|------------------------------|
|-------------3-------------3-|-------------3-------------3--|
|-0-0-0-0-0-0---0-0-0-0-0-0---|-0-0-0-0-0-0---0-0-0-0-0-0----|


    Gtr I
      PM|                   PM--------------|
||--------------------|-----------------------|
||o-------------------|-----------------------|
||--------------------|-----------------------|
||--------4h5p4-------|-----------------------|
||o-0-----------6-5-3-|-6p5-------------------|
||--0-0-0-------------|-----0-0-0-0-0-0-0-0-0-|
|
|   Gtr II
|     PM|                   PM--------------|
||--------------------|-----------------------|
||o-------------------|-----------------------|
||--------------------|-----------------------|
||--------------------|-----------------------|
||o-0-----5h6p5-3-1-0-|-3p1-------------------|
||--0-0-0-------------|-----0-0-0-0-0-0-0-0-0-|


    PM|                         PM------------|
|-------------------|---------------------------|
|-------------------|---------------------------|
|-------------------|---------------------------|
|-------4h5p4-------|---------------------------|
|-0-----------6-5-3-|-6p5-----------------------|
|-0-0-0-------------|-----1-1-1-4-4-4-4-4-4-4-4-|
|
|   PM|                         PM------------|
|-------------------|---------------------------|
|-------------------|---------------------------|
|-------------------|---------------------------|
|-------------------|---------------------------|
|-0-----5-6-5-3-1-0-|-3-1-----------------------|
|-0-0-0-------------|-----1-1-1-4-4-4-4-4-4-4-4-|


    PM|                   PM--------------|
|-------------------|-----------------------|
|-------------------|-----------------------|
|-------------------|-----------------------|
|-------4h5p4-------|-----------------------|
|-0-----------6-5-3-|-6p5-------------------|
|-0-0-0-------------|-----0-0-0-0-0-0-0-0-0-|
|
|   PM|                   PM--------------|
|-------------------|-----------------------|
|-------------------|-----------------------|
|-------------------|-----------------------|
|-------------------|-----------------------|
|-0-----5h6p5-3-1-0-|-3p1-------------------|
|-0-0-0-------------|-----0-0-0-0-0-0-0-0-0-|


    PM|   PM  PM|     PM|      ~~~~~~~~~
|-----------------|-------------------------||
|-----------------|------------------------o||
|-----------------|-------------------------||
|-----------------|-------------------------||
|-------4---1-----|-------5---[4]-([4])----o||
|-1-1-1---1---1-1-|-4-4-4---4---------------||
|
|   PM|   PM  PM--------|   PM ~~~~~~~~~
|-----------------|-------------------------||
|-----------------|------------------------o||
|-----------------|-------------------------||
|-----------------|-------------------------||
|-------4---1-----|-------1---[4]-([4])----o||
|-1-1-1---1---1-1-|-4-4-4---4---------------||


  Gtrs I, II
|-----------------|-----------------|-----------------|------------------|
|-----------------|-----------------|-----------------|------------------|
|-----------------|-----------------|-----------------|------------------|
|---5-4---------4-|---5-4-----------|---5-4---------4-|---5-4------------|
|-------6---5-6---|-------6---5-6-3-|-------6---5-6---|-------6---5-6-1--|
|-0-------0-------|-0-------0-------|-0-------0-------|-0-------0--------|


  Gtr I
|-----------------|-----------------|-----------------|---------------------|
|-----------------|-----------------|-----------------|---------------------|
|-----------------|-----------------|-----------------|---------------------|
|---5-4---------4-|---5-4-----------|---5-4---------4-|---5-4---------------|
|-------6---5-6---|-------6---5-6-3-|-------6---5-6---|-------6----5--6--1--|
|-0-------0-------|-0-------0-------|-0-------0-------|-0-------0-----------|
|
| Gtr II
|-----------------|-----------------|-----------------|---------------------|
|-----------------|-----------------|-----------------|-----------12-11-----|
|-----------------|-----------------|---8-7---------7-|---8-7-----------12--|
|---8-7---------7-|---8-7-----------|-------9---8-9---|-------9-------------|
|-------9---8-9---|-------9---8-9-6-|-----------------|---------------------|
|-0-------0-------|-0-------0-------|-0-------0-------|-0-------0-----------|


    Gtrs I, II
||------------------|-----------|-----------------|-----------||
||o-----------------|-----------|-----------------|----------o||
||------------------|-----------|-----------------|-----------||
||------------------|-----------|-----------------|-----------||
||o-0-0-0---0---0-0-|-0------0--|-0-0-0---0---0-0-|-0--------o||
||--0-0-0---0---0-0-|-0------0--|-0-0-0---0---0-0-|-0---------||


    Q=170
||---------------------------|-----------------------|
||o--------------------------|-----------------------|
||---------------------------|-----------------------|
||---------------------------|-----------------------|
||o-0-0-0-(0)--0-(0)-(0)-0-0-|-0-(0)-(0)--(0)--0-(0)-|
||--1-1-1-(1)--1-(1)-(1)-1-1-|-1-(1)-(1)--(1)--1-(1)-|


                                                4x
|--------------------------|--------------------||
|--------------------------|-------------------o||
|--------------------------|--------------------||
|--------------------------|--------------------||
|-0-0-0-(0)--0-(0)-(0)-0-0-|-0-(0)-(0)--(0)----o||
|-1-1-1-(1)--1-(1)-(1)-1-1-|-1-(1)-(1)--(1)-----||


  Q=190
               PM|   PM  PM        PM-----|
|----------|-----------------|-------------------|
|----------|-----------------|-------------------|
|----------|-----------------|-------------------|
|----------|-----------------|-------------------|
|-0--------|-0-----7---8---4h|=5p4---8-10-7------|
|-0--------|-0-0-0---0---0---|-----7--------8-11-|


    PM|   PM  PM        PM----|
|-----------------|-------------------|
|-----------------|-------------------|
|-----------------|-------------------|
|-----------------|-------------------|
|-0-----7---8---4h|=5p4---------------|
|-0-0-0---0---0---|-----8-7-5-4-1-3---|


  Gtr I
    PM|   PM  PM        PM-----|
|-----------------|-------------------|
|-----------------|-------------------|
|-----------------|-------------------|
|-----------------|-------------------|
|-0-----7---8---4h|=5p4---8-10-7------|
|-0-0-0---0---0---|-----7--------8-11-|
|
| Gtr II
|   PM|   PM  PM
|-----------------|-------------------|
|-----------------|-------------------|
|-----------------|-------------------|
|---------------2-|-3-2---7-----------|
|-0-----3---5-----|-----5----7-3-5--7-|
|-0-0-0---0---0---|-------------------|


    PM|   PM  PM
|-----------------|------------------|----------*|
|-----------------|------------------|----------*|
|-----------------|------------------|----------*|
|-----------------|---8-7------------|----------*|
|-0-----7---8---4-|-7-----8-10-8-4-5-|-0--------*|
|-0-0-0---0---0---|------------------|-0--------*|
|
|   PM|   PM  PM
|-----------------|------------------|----------*|
|-----------------|------------------|----------*|
|-----------------|---7--------------|----------*|
|-------5---7---3-|-5---3-0--2-0-2-3-|----------*|
|-0---------------|------------------|-0--------*|
|-0-0-0---0---0---|------------------|-0--------*|


Tablature Legend
----------------
 h   - hammer-on
 p   - pull-off
 b   - bend
 pb  - pre-bend
 r   - bend release (if no number after the r, then release immediately)
 /\  - slide into or out of (from/to "nowhere")
 s   - legato slide
 S   - shift slide
  - natural harmonic
[n]  - artificial harmonic
n(n) - tapped harmonic
 ~   - vibrato
 tr  - trill
 T   - tap
 TP  - trem. picking
 PM  - palm muting
\n/  - tremolo bar dip; n = amount to dip
 \n  - tremolo bar down
 n/  - tremolo bar up
/n\  - tremolo bar inverted dip
 =   - hold bend; also acts as connecting device for hammers/pulls
 <>  - volume swell (louder/softer)
 x   - on rhythm slash represents muted slash
 o   - on rhythm slash represents single note slash

Misc Legend
-----------
 |  - bar
||  - double bar
||o - repeat start
o|| - repeat end
*|  - double bar (ending)
 :  - bar (freetime)
 $  - Segno
 &  - Coda
Tempo markers -  = BPM(8/16=s8/s16), where s8 = swing 8ths, s16 = swing 16ths


***************************************************************************************
***************************************************************************************





Comments


Popular I Declare War tabs & chords
Amidst The Bloodshed Tabs
Destroy The Weak Tabs
God Has No Place Within These Walls Tabs
Now Youre Going To Be Famous Tabs
Nworb Ydoc Tabs
Purification Of The Population Intro Tabs
Putrification Of The Populutation Intro Tabs
Rudolph The Red Nosed Reindeer Tabs
Through The Eyes Of The Killer Tabs
Whoop Dat Trick Tabs


Song lyrics



↑ Back to top | Tablatures and chords are parodies/interpretations of the original songs. You may use it for private study, scholarship, research or language learning purposes only
© 2014 AZChords.com Contact us | Privacy policy | DMCA | Add/correct tabs | Request tabs | Top 50 tabs