» » »

Ida Maria, Stella And God Bass tabs (ver.1)

Artists:  A B C D E F G H I J K L M N O P Q R S T U V W X Y Z # 

Stella And God Bass tabs (ver.1)

Ida Maria Tabs
 Rating:
4/5 (4 votes)
Stella And God lessons Tabs too difficult? Try these video lessons and learn fast
1
                +++++++++++++++++++++
| Ida Maria- Stella |
+++++++++++++++++++++


"What is real love to you?
What is fake and what is true?..."

Tuning: Standard EADG



Verse
"God was there..."
1.
G|----------------------------------------|
D|-------------------------------33333333-|
A|-3~------------------3~-----------------|
E|-----------1x---------------------------|

"Brought a ladyfriend..."
2.
G|---------------------------------------------|
D|----------5-33~----3-55----------------------|
A|-33~----3---------------33~---33-33-33-33333-|
E|---------------------------------------------|

Chorus
"Stella, stella..."
3.
G|---------------------------------------------------------------------------|
D|-000-------0000000---------2-332200---000-------00000000----------33333555-|
A|----0~-030--------4-3333333--------33----0~-030----------33333333----------|
E|---------------------------------------------------------------------------|

Verse
"And I wonder how it will go..."
4.
G|----------------------------------------------------------------------------------|
D|---------5-33----3-55---------5-33----3-55---------5-33----3-55----------------02-|
A|-33----3--------------33----3--------------33----3--------------33---333-333333---|
E|----------------------------------------------------------------------------------|

Pre-Chorus
"The old man hands over the crown..."
5.
G|-------------------|
D|-33333333-55555555-|
A|-------------------|
E|-------------------|

Chorus
"Stella, stella..."
6.
G|---------------------------------------------------------------------------|
D|-000-------00000-0---------2-332200---000-------00000-0-------222-33333333-|
A|----0~-030------0-4-3333333--------33----0~-030------0-4-33333-------------|
E|---------------------------------------------------------------------------|

Outro
"Hold me tight..."
7.
G|--------------------------------------------------------------------252-55555500----------|
D|----------55-33-3~--3-55----------55-33-3~--3-55----------55-33-3~---------------33333322-|
A|-33-3~--3----------------33-3~--3----------------33-3~--3---------------------------------|
E|------------------------------------------------------------------------------------------|

Bridge
"And it made me realize..."
8.
G|-----------------------------------------------------------------------|
D|-0~--------------33333333-33333333-0~----------------33333333----------|
A|-----------------------------------------------------------------------|
E|--------------------------------------------------------------33333333-|

Chorus
"Stella, stella..."
9.
G|---------------------------------------------------------------------------|
D|-000-------00000-0---------2-332200---000-------00000-0--------------------|
A|----0~-030------0-4-3333333--------33----0~-030------0-4-333-2353----------|
E|------------------------------------------------------------3-----11111111-|

"Stella, stella..."
10.
G|---------------------------------------------------------------------------|
D|-000-------00000-0---------2-332200---000-------00000----------------------|
A|----0~-030------0-4-3333333--------33----0~-030------035-33333333----------|
E|------------------------------------------------------------------11111111-|

Outro
"Hold me tight..."
11.
G|----------------------------------------------------------------/55555----------------------|
D|----------55-33-3~--3-55----------55-333/77777----------55-33~-3----------------55-33333322-|
A|-33-3~--3----------------33-3~--3--------------33-3~--3----------------33-3~--3-------------|
E|--------------------------------------------------------------------------------------------|

"Stella..."
12.
G|----------------------------------------------------------------|
D|-0~--------------------------------0~---------------------------|
A|-------------------3~----/8~----\7------------------3~----------|
E|----------------------------------------------------------1~----|

"Stella..."
13.
G|---------------------------------------------------------------|
D|-0~------------------------------------------------------------|
A|-------------------3~------------------------------------------|
E|-------------------------1~------------------------------------|


Please rate thank you!!


Lyrics:

God was there, always had the best of drugs,
knew where to get them, brought a ladyfriend
and I believe her name was Stella, and he said
Stella, Stella, I wanna give you the world if you just stay with me tonight
Stella, I wanna give you the world if you just hold me tight

And I wonder how it will go
When God hands over the whole wide world to
a 43 year old hooker from downtown
Maybe it's about time the old man hands over the crown

And it made me realize how much you wanna give away just to feel loved
And the Lord blinked to me and asked: What is real love to you?
What is fake and what is true?



+++++++++++++++++++++++++++++++++
| RaiLeff                       |
+++++++++++++++++++++++++++++++++
            
Submit corrections

comments powered by Disqus
↑ Back to top | Ida Maria Bass for Stella And God. Lyrics for acoustic guitar and electric guitar. 1 Tablatures and chords are parodies/interpretations of the original songs. You may use it for private study, scholarship, research or language learning purposes only