>
 >
Oh My God

Oh My God Bass Tabs

Ida Maria - Oh My God chords, tabs, tablatures, lyrics

Guitar lessons | Add/correct | Request | Top 50 tabs Artists:  A B C D E F G H I J K L M N O P Q R S T U V W X Y Z 0-9

Oh My God Bass Tabs – Ida Maria

CD, Sheet music, Poster

Do you like Oh My God? Share with your friends now
Bass TabsChordsChords v2TabsUkulele
-------------------------------------------------------------------------------
-------------------------------------------------------------------------------


I'm pretty sure this is 100% correct! get the timing and rhythm from the record as 
it changes regularly through the track.

Tuning: Standard

1st verse no bass.

Chorus, bass enters 0:23
				(Slide last time only)
	G|----------------------------------------|
	D|----------------------------------------|
	A|--9-9-9-9-9-9-9-9---5-5-5-5-------------|       x3
	E|-----------------------------5-5-5-5/---|
Oh my God...

0:31 - Last line of the chorus goes:
G|-------------------------------------------|
D|--------------------------------7-7-7------|
A|--9-9-9-9-9-9-9-9---5-5-5-5----------------|
E|-----------------------------5-------------|

2nd verse 0:34:

G|-------------------------------|
D|--7--7--7--7--7--7--7----------|
A|-----------------------5--5--5-|  x3
E|-------------------------------|

G|-----------------7-7-7-7--9-9-9-9--|
D|--7---7---7---7--------------------|
A|-----------------------------------|	x1
E|-----------------------------------|

0:45 - 2nd half of the verse the rhythm changes through-out, listen to the record to figure it out
G|--------------------------------------|
D|--7-7-7-7-7-7-7-7-7-7-7-7-7-----------|
A|----------------------------5--5--5---|	x3
E|--------------------------------------|

G|---------------------------------------|
D|--7-7-7-7-7-7-7-7-7-7-7-7-7---7--7--7--|
A|---------------------------------------|
E|---------------------------------------|

0:57 - 2nd Chorus:


	G|--------------------------------------|
	D|--------------------------------------|
	A|--9-9-9-9-9-9-9-9---5-5-5-5-----------|	x4
	E|----------------------------5-5-5-5---|
"Oh my     God...

1:08 - 3rd verse:
Listen for timing
G|--------------------------------------|
D|--7--7--7--7-7-7-7-7-7-7--------------|
A|------------------------------5--5----|	x2
E|--------------------------0h5---------|

G|----------------------------------------|
D|--7--7--7--7-7-7-7-7-7-7----------------|
A|--------------------------5--5--5--5----|	x2
E|----------------------------------------|

1:19 - Break:

G|-------------------|
D|--7-7-7-7-7-7-7-7--|
A|-------------------|	x8
E|-------------------|

1:30
G|-------------------------------------|
D|-------------------------------------|
A|-9-9-9-9-9-9-9-9-9-9-9-9-11-11-12-12-|
E|-------------------------------------|

G|-------------------------------------|
D|-------------------------------------|
A|-7-7-7-7-7-7-7-7-7-7-7-7-11-11-12-12-|
E|-------------------------------------|

G|-------------------------------------|
D|-------------------------------------|
A|-5-5-5-5-5-5-5-5-5-5-5-5/11-11-12-12-|
E|-------------------------------------|

G|-------------------------------------|
D|-------------------------------------|
A|-4-4-4-4-4-4-4-4-4-4-4-4-4-4-5-5-----|
E|-------------------------------------|

G|-----------------------------------------------|
D|-----------------------------------------------|
A|-2-2-2-2-2-2-2-2/14-14-14-14-14-14-14-14-12\-7-|
E|-----------------------------------------------|

1:47 - 3rd Chorus:

	G|---------------------------------------|
	D|---------------------------------------|
	A|--9-9-9-9-9-9-9-9---5-5-5-5------------|	x4
	E|-----------------------------5-5-5-5---|
"Oh my     God...

2nd Break 1:58
				              (long slide)
	G|---------------------------------------|
	D|---------------------------------------|
	A|--77777777-55555555-44444444-2222-////-|
	E|---------------------------------------|
"Is this fun for you?"

4th Chorus:

	G|--------------------------------------|
	D|--------------------------------------|
	A|-------------------5-5-5-5------------|
	E|--2-2-2-2-2-2-2-2-----------5-5-5-5---|
"Oh my     God...

G|---------------------------------------|
D|---------------------------------------|
A|--------------------5-5-5-5------------|
E|--2-2-2-2-2-2-2-2-------------07-5-5---|

G|----------------------------------------|
D|----------------------------------------|
A|--------------------5-5-5-5-------------|	x2
E|--2-2-2-2-2-2-2-2-------------5-5-5-5---|

2:15
	G|----------------------------------------|
	D|----------------------------------------|
	A|-------------------5-5-5-5/12-12-12-12--|
	E|--2-2-2-2-2-2-2-2-----------------------|
"OH MY     GOD!"
G|----------------------------------------|
D|----------------------------------------|
A|-------------------5-5-5-5/12-14-12-14--|
E|--2-2-2-2-2-2-2-2-----------------------|

G|----------------------------------------|
D|----------------------------------------|
A|-------------------5-5-5-5/12-12-12-12--|	X2
E|--2-2-2-2-2-2-2-2-----------------------|

G|----------------------------------------|
D|----------------------------------------|
A|-------------------5-5-5-5--------------|	x3
E|--0/2-2-2-2-2-2-2----------5-5-5-5------|

G|----------------------------------------|
D|----------------------------------------|
A|-------------------5-5-5-5/12-12-12-12--|	x4
E|--0/2-2-2-2-2-2-2-----------------------|

G|-----------------------------------------|
D|-----------------------------------------|
A|-------------------5-5-5-5---------------|	
E|--0/2-2-2-2-2-2-2----------5-5-5-5-------|
repeat to end (with a few variations from above)

| /  slide up
| \  slide down
| h  hammer-on
| p  pull-off
| ~  vibrato
| +  harmonic
| x  Mute note
===============================================================================





Comments


Popular Ida Maria tabs & chords
I Like You So Much Better When Youre Naked Intro Bass Tabs
Keep Me Warm Chords
My Shoes Chords
Oh My God Chords
Oh My God 1 Chords
See Me Through Chords
Forgive Me Tabs
Oh My God Tabs
Oh My God Ukulele
Quite Nice People Ukulele


Song lyrics



↑ Back to top | Tablatures and chords are parodies/interpretations of the original songs. You may use it for private study, scholarship, research or language learning purposes only
© 2014 AZChords.com Contact us | Privacy policy | DMCA | Add/correct tabs | Request tabs | Top 50 tabs