» » »

Ida Maria, Forgive Me Tabs (ver.1)

Artists:  A B C D E F G H I J K L M N O P Q R S T U V W X Y Z # 

Forgive Me Tabs (ver.1)

Ida Maria Tabs
Rating:
0/5 (0 votes)
Forgive Me lessons Tabs too difficult? Try these video lessons and learn fast
                Intro 
E-----------------------|
B-----------------------|
G----------------7---6--|
D----------------7---7--|
A----------------5---5--|
E-----------------------|


"You read about love in a book somewhere.Then you read it out loud what you found in there"
E-----------------------|
B-----------------------|
G----------------7---6--|
D----------------7---7--|
A----------------5---5--|
E-----------------------|



"And you had me for days and you had me for months.And I hope you've enjoyed your time of fun"

E-----------------------|
B-------------------7---|
G-------------------x-6-|
D-------------------7-7-|
A-------------------5-5-|
E-----------------------|      
                                     D       Em
"Oh, forgive me .For running down yor door"
D----4-------4----5---|
A--3--------5---3-----| (Im not sure of this)
E---------------------|
         
"I thought all those fancy words were yours" 
E-----------------|
B-----------------|
G----------6---7--|
D----------7---7--|
A----------5---5--|
E-----------------|


Verse (Same)

I'm treated with cold, cold kisses
And I'm treasured like a piece of junk
I call you up to say I love you
You only call me when you're drunk
And still you keep me hanging around
Like I was some old sofa you found in a second-hand store
     
Oh, forgive me            Em
For running down your door       D      E
I thought all those fancy words were yours
                                 D      Em
I promise I won't do that anymore
I promise I won't do that anymore 
            

comments powered by Disqus
↑ Back to top | Ida Maria Tabs for Forgive Me. Lyrics for acoustic guitar and electric guitar. Tablatures and chords are parodies/interpretations of the original songs. You may use it for private study, scholarship, research or language learning purposes only