» » »

The Greatest Story Ever Told Tabs (ver.4)

Artists:  A B C D E F G H I J K L M N O P Q R S T U V W X Y Z # 

The Greatest Story Ever Told Tabs (ver.4)

Ice Nine Kills
Rating:
3/5 (1 vote)

Hard to play? Try these video lessons and learn fast.
                (Intro)
Tuning: I play it in Drop C, but I guess you can do it in Drop D, just move everything 2 
down

Hey guys, I've been a fan of INK for years, and since there's no good tab for this intro 
writing my own.
I wrote this listening to the new version of the song,
but it's almost exactly the same as the old version from The Burning.

I'm not sure about the 0's, as other stuff sounds fine in the same place, such as 7's, 
the song goes by too fast to really tell.

Anyway, here goes
0:00 - 0:01
D|------13--18-17-15-13-17-15-13-12------------------------------|
A|----15---------------------------------------------------------|
F|--14-----------------------------------------------------------|
C|0--------------------------------------------------------------|
D|0--------------------------------------------------------------|
C|0--------------------------------------------------------------|

0:01 - 0:03
D|------13--18-17-20-18-17-15-13-12------------------------------|
A|----15---------------------------------------------------------|
F|--14-----------------------------------------------------------|
C|0--------------------------------------------------------------|
D|0--------------------------------------------------------------|
C|0--------------------------------------------------------------|


0:01 - 0:06
D|-----------------------17p13---17p13--------13-17p13-----------|
A|13h15p13---13h15p13---------15------15----15--------17-15------|
F|--------12---------12-------------------14---------------------|
C|---------------------------------------------------------------|
D|---------------------------------------------------------------|
C|---------------------------------------------------------------|
            
Hard to play? Try these video lessons and learn fast. | Correct




comments powered by Disqus
↑ Back to top | Tablatures and chords are parodies/interpretations of the original songs. You may use it for private study, scholarship, research or language learning purposes only