>
 >
The Greatest Story Ever Told 1

The Greatest Story Ever Told 1 Guitar Tabs

Ice Nine Kills - The Greatest Story Ever Told 1 chords, tabs, tablatures, lyrics

Guitar lessons | Add/correct | Request | Top 50 tabs Artists:  A B C D E F G H I J K L M N O P Q R S T U V W X Y Z 0-9

The Greatest Story Ever Told 1 Guitar Tabs – Ice Nine Kills

CD, Sheet music, Poster

Do you like The Greatest Story Ever Told 1? Share with your friends now
TabsTabs v2
----------------------------------------------------------------------------
              The Greatest Story Ever Told - Ice Nine Kills
----------------------------------------------------------------------------

Tuning: Drop D
I don't know which one is guitar 1 and guitar 2 so I just put what time to play each 
so you know which parts are played at the same time.

  0:00-0:03 make sure you pick this part no hammer ons.
e|-13-15-16-15-13-16-15-13-15-13-11--13-15-16-15-13-18-16-15-15-13----|
B|-----------------------------------------------------------------16-|
G|--------------------------------------------------------------------|
D|--------------------------------------------------------------------|
A|--------------------------------------------------------------------|
D|--------------------------------------------------------------------|

 0:04-0:06
e|--------------------------------------15-13-11-15-13-11--------15-13-11--|
B|--15h16p15----------15h16p15---------------------------12-13-15--------13|
G|-----------13h15p13----------13h15p13------------------------------------|
D|-------------------------------------------------------------------------|
A|-------------------------------------------------------------------------|
D|-------------------------------------------------------------------------|

  0:00-0:04
e|-------------------------------------------------------------------------|
B|-------------------------------------------------------------------------|
G|-------------------------------------------------------------------------|
D|-5-----------------------------------------------------------------------|
A|-3----------------------------5-------------------------------6----------|
D|------------------------------5-------------------------------6----------|

  0:06-0:12
e|--------------------------------------------|
B|--------------------------------------------|
G|--------------------------------------------|
D|--------------5-------------------6-6--5-5--|
A|-6-6-6-6-6-5--3---3-5-6-5-3-5-----6-6--5-5--|
D|-6-6-6-6-6-5------3-5-6-5-3-5-----6-6--5-5--|
   ...........     .............
  0:12-0:18
e|----------------------------------------------------|
B|----------------------------------------------------|
G|----------------------------------------------------|
D|-5-0-0-5-0-0-------5------5-0-0-5-0-0--------6-5----|
A|-------------3-5-6---6-5---------------3-5-6-----6--|x2
D|----------------------------------------------------|
     ...   ...                ...   ...  .......
  0:18-0:30
e|-------------------------------------------------------11---------------|
B|-----------------------------------------------8---8---8----------------|
G|------------------------------------------------------------------------|
D|-6-x-x-x-x-5----6-5-6-5-6-5---5-6-5--6--8-------------------------------|
A|-6-x-x-x-x-5----6-5-6-3-6-5---5-6-5--6--8----6---6---6-----5-6-5-8-5----|
D|-6-x-x-x-x-5----6-5-6---6-5---5-6-5--6--8----6---6---6-----5-6-5-8-5----|

  0:30-0:34
e|--------11------------11------------11------------11--------|
B|------8----8--------8----8--------8----8--------8----8------|
G|----8--------8----8--------8----8--------8----8--------8----|
D|-10------------10------------10------------10---------------|
A|------------------------------------------------------------|
D|------------------------------------------------------------|

  0:34-0:36
e|----------10----------------10--------------10-------------10------|
B|-------11----11----------11----11---------8----8---------8----8----|
G|----12----------12----12----------12---10--------10---10--------10-|
D|-13----------------13----------------8--------------8--------------|
A|-------------------------------------------------------------------|
D|-------------------------------------------------------------------|

  0:36-0:39
e|--------11------------11------------11------------11------|
B|------8----8--------8----8--------8----8--------8----8----|
G|----8--------8----8--------8----8--------8----8--------8--|
D|-10------------10------------10------------10-------------|
A|----------------------------------------------------------|
D|----------------------------------------------------------|

  0:40-0:42
e|--------------------------------------------------------|
B|--------------------------------------------------------|
G|-5-5-5-8-8-8-12-12-12-8-8-8-5-5-5-7-7-7-10-10-10-7-7-7--|
D|-x-x-x-x-x-x--x--x--x-x-x-x-x-x-x-x-x-x--x--x--x-x-x-x--|
A|-3-3-3-6-6-6-10-10-10-6-6-6-3-3-3-5-5-5--8--8--8-5-5-5--|
D|--------------------------------------------------------|
  the chorus has to much distortion for me to figure it out.  just play around with 
and power chord and im sure you can figure it out.
  1:44-1:49
e|-------------------------------------------------------------------|
B|-------------------8b--7-8-7---------------------------10b--9-10-9-|
G|-8-7-5-8-7-5---5-7-----------8-7-5---8-7-5-8-7-5---5-7-------------|
D|-------------4---------------------4-------------4-----------------|
A|-------------------------------------------------------------------|
D|-------------------------------------------------------------------|

  1:49-1:50
e|-----------|
B|-10-9-7----|
G|--------6--|
D|-----------|
A|-----------|
D|-----------|

  1:55-2:07
e|-15-13-----15-13-11---------------15b-16-15-13----15-13-11-----|
B|-------13b----------12b--------13--------------13----------12--|
G|-------------------------13-12---------------------------------|
D|---------------------------------------------------------------|x2
A|---------------------------------------------------------------|
D|---------------------------------------------------------------|

  2:47-2:53
e|-----------------------------------------------------------------------|
B|-16-15-13-----12h13p12-------------------------------------12--13------|
G|----------15----------12-13-----10-13-12-10----10-13-12-10-------------|
D|-----------------------------13-------------13-------------------------|
A|-----------------------------------------------------------------------|
D|-----------------------------------------------------------------------|

  2:56-2:59
e|---------------------------------------------------------------|
B|---------------------------------16-15--13---16p15p13----------|
G|------------------------------12----------------------15p13p12-|
D|-----------12-13-----12-13-15----------------------------------|
A|--12-13-15-----------------------------------------------------|
D|---------------------------------------------------------------|

  2:56-2:59
e|-------------------------|
B|-13-12-10-12-------------|
G|-------------10----------|
D|-------------------------|
A|-------------------------|
D|-------------------------|

  3:41-4:13 play this part until the end.
e|-------------------------------------------------------|
B|--16----16-15------------------------------------------|
G|--------------15-17-15b---12-13-15-13-12---13h15p13----|
D|----------------------------------------------------13-|
A|-------------------------------------------------------|
D|-------------------------------------------------------|
I left out some part cuz i'm lazy but I tabbed most of the good lead parts.  Sorry about 
-Jesse

| /  slide up
| \  slide down
| h  hammer-on
| p  pull-off
| ~  vibrato
| +  harmonic
| x  Mute note





Comments


Popular Ice Nine Kills tabs & chords
The Simple Act Of Giving Up Chords
What I Really Learned In Study Hall Chords
Build A Bridge And Jump Off Tabs
Family Unties Tabs
Last Words Intro Tabs
Last Words Intro 1 Tabs
The Greatest Story Ever Told Intro Tabs
What I Really Learned In Study Hall 1 Tabs
What I Really Learned In Study Hall 2 Tabs
What I Really Learned In Study Hall Ukulele


Song lyrics



↑ Back to top | Tablatures and chords are parodies/interpretations of the original songs. You may use it for private study, scholarship, research or language learning purposes only
© 2014 AZChords.com Contact us | Privacy policy | DMCA | Add/correct tabs | Request tabs | Top 50 tabs