» » »

Family Unties Tabs (ver.1)

Artists:  A B C D E F G H I J K L M N O P Q R S T U V W X Y Z # 

Family Unties Tabs (ver.1)

Ice Nine Kills
Rating:
0/5 (0 votes)

Tabs too difficult? Try these video lessons and learn fast.
                -------------------------------------------------------------------------------
                               Family Unties Solo 
                                 Ice Nine Kills
                         Last Chance To Make Amends (2006)
-------------------------------------------------------------------------------

Tuning: Drop D

Guitar 1: Lead

e|-17-------------17-------------17-------------17-------------|
B|----15-14-15-14----15-14-15-14----15-14-15-14----15-14-15-15-|
G|-------------------------------------------------------------|
D|-------------------------------------------------------------|
A|-------------------------------------------------------------|
D|-------------------------------------------------------------|

e|-171717171515151514141414---------171717171515151514141414---------|
B|-------------------------15151515-------------------------15151515-|
G|-------------------------------------------------------------------|
D|-------------------------------------------------------------------|
A|-------------------------------------------------------------------|
D|-------------------------------------------------------------------|

e|-17-------------17-------------17-------------17-----------|
B|----15-14-15-14----15-14-15-14----15-14-15-14----15-14-15~-|
G|-----------------------------------------------------------|
D|-----------------------------------------------------------|
A|-----------------------------------------------------------|
D|-----------------------------------------------------------|

e|-171717171515151514141414---------171717171515151514141414------14-|
B|-------------------------15151515-------------------------151515---|
G|-------------------------------------------------------------------|
D|-------------------------------------------------------------------|
A|-------------------------------------------------------------------|
D|-------------------------------------------------------------------|

e|----14----14-17-15-14----17-17-14-15-14-------14-----|
B|-15----15-------------15----------------15-15----15~-|
G|-----------------------------------------------------|
D|-----------------------------------------------------|
A|-----------------------------------------------------|
D|-----------------------------------------------------|

e|-14----14----17-15-14-----17-17-14-15-14-------|
B|----15----15----------15~----------------15-15-|
G|-----------------------------------------------|
D|-----------------------------------------------|
A|-----------------------------------------------|
D|-----------------------------------------------|



Guitar 2: Rhythm.

e|-----------------------------------------------------------|
B|-----------------------------------------------------------|
G|-4~-------------7777777777777--------------------4~--------|
D|-4~---5~---7-7--77777777777777-7-777777777777777-4~--7~-55-|
A|-2~---5~---7-7—-55555555555557-7-777777777777777-2~--7~-55-|
D|------5~---7-7---------------7-7-777777777777777-----7~-55-|
                  .. ... ... ..    .. ... ... ...

e|--------------------------------------------------------------------------------|
B|--------------------------------------------------------------------------------|
G|-7777777----------44--------------77777777---------44--------------77777777-----|
D|-7777777-77777777-44-777-55555555-7777777777777777-44-777-55555555-777777777777-|
A|-5555555-77777777-22-777-55555555-5555555577777777-22-777-55555555-555555557777-|
D|---------77777777----777-55555555---------77777777----777-55555555---------7777-|


Any corrects/comments? :)
If you like it, I might have a shot at the whole song. :)
            
Tabs too difficult? Try these video lessons and learn fast.




comments powered by Disqus
↑ Back to top | Tablatures and chords are parodies/interpretations of the original songs. You may use it for private study, scholarship, research or language learning purposes only