» » »

Build A Bridge And Jump Off Tabs (ver.2)

Artists:  A B C D E F G H I J K L M N O P Q R S T U V W X Y Z # 

Build A Bridge And Jump Off Tabs (ver.2)

Ice Nine Kills
Rating:
4/5 (1 vote)

Hard to play? Try these video lessons and learn fast.
                (Intro)
intro~

(palm mute)
|---------------------------------------------------------------------------|
|---------------------------------------------------------------------------|
|---------------------------------------------------------------------------|
|---------------5--------------------5--------------------------------------|
|------5-----5--------------5-----5-----5-----5-----------------------------|
|---3-----3--------------3-----3-----------3--------------------------------|
 .  .  .  .  .  .  .  .  .  .  .  .  .  .  .  .  .  .  .  .  .  .  .  .  .


|---------------------------------------------------------------------------|
|---------------------------------------------------------------------------|
|---------------0--------------------0--------------------------------------|
|------0-----0--------------0-----0-----0-----0-----------------------------|
|---3-----3--------------3-----3-----------3--------------------------------|
|---------------------------------------------------------------------------|
 .  .  .  .  .  .  .  .  .  .  .  .  .  .  .  .  .  .  .  .  .  .  .  .  .


|---------------------------------------------------------------------------|
|---------------------------------------------------------------------------|
|---------------------------------------------------------------------------|
|---------------5--------------------5--------------------------------------|
|------5-----5--------------5-----5-----5-----5-----------------------------|
|---3-----3--------------3-----3-----------3--------------------------------|
 .  .  .  .  .  .  .  .  .  .  .  .  .  .  .  .  .  .  .  .  .  .  .  .  .


|---------------------------------------------------------------------------|
|---------------------------------------------------------------------------|
|---------------------------------------4--4p2--0---------------------------|
|------------5--------------------------------------------------------------|
|------5--------5-----5-----------5-----------------------------------------|
|---2-----2--------2-----------2-----2--------------------------------------|
 .  .  .  .  .  .  .  .  .  .  .  .  .  .  .  .  .  .  .  .  .  .  .  .  .


|---------------------------------------------------------------------------|
|---------------------------------------------------------------------------|
|---------------------------------------------------------------------------|
|---------------5----------------------------5------------------------------|
|------5-----5-----5-----5-------------5--------5-----5---------------------|
|---3-----3-----------3-------------3-----3--------3------------------------|
 .  .  .  .  .  .  .  .  .  .  .  .  .  .  .  .  .  .  .  .  .  .  .  .  .


|---------------------------------------------------------------------------|
|---------------------------------------------------------------------------|
|---------------0----------------------------0------------------------------|
|------0-----0-----0-----0-------------0--------0-----0---------------------|
|---3-----3-----------3-------------3-----3--------3------------------------|
|---------------------------------------------------------------------------|
 .  .  .  .  .  .  .  .  .  .  .  .  .  .  .  .  .  .  .  .  .  .  .  .  .


|----------------------------------------------------------------------------|
|----------------------------------------------------------------------------|
|----------------------------------------------------------------------------|
|---------------5--------------------------5----------------------------5----|
|------5-----5-----5-----5-----------5--------5-----5----------5-----5-----5-|
|---3-----3-----------3-----------3-----3--------3----------2-----2----------|
 .  .  .  .  .  .  .  .  .  .  .  .  .  .  .  .  .  .  .  .  .  .  .  .  .

:)
            
Hard to play? Try these video lessons and learn fast. | Correct




comments powered by Disqus
↑ Back to top | Tablatures and chords are parodies/interpretations of the original songs. You may use it for private study, scholarship, research or language learning purposes only