>
 >
A Lifetime In A Week 2

A Lifetime In A Week 2 Guitar Tabs

Ice Nine Kills - A Lifetime In A Week 2 chords, tabs, tablatures, lyrics

Guitar lessons | Add/correct | Request | Top 50 tabs Artists:  A B C D E F G H I J K L M N O P Q R S T U V W X Y Z 0-9

A Lifetime In A Week 2 Guitar Tabs – Ice Nine Kills

CD, Sheet music, Poster

Do you like A Lifetime In A Week 2? Share with your friends now
TabsTabs v2Tabs v3Tabs v4
-------------------------------------------------------------------------------
                             A Lifetime In A Week - ICE NINE KILLS
-------------------------------------------------------------------------------

There are two guitars at some points in this song which I will designate.
Both are acoustic guitars in Drop D.
This is my first tab and it took a LOT of work. Enjoy :)

Tuning: Drop D (D-A-D-G-B-E)

Intro
e|-----3333-333-33x------------------6-6-6666-666-66x-5-5-5555-555-55x-------|
B|-----3333-333-33x-8-8-8888-888-88x-6-6-6666-666-66x-6-6-6666-666-66x-------|
G|-2-3-3333-333-33x-8-8-8888-888-88x-7-7-7777-777-77x-5-5-5555-555-55x-------| x2
D|-5-5-5555-555-55x-8-8-8888-888-88x-8-8-8888-888-88x-7-7-7777-777-77x-------|
A|-5-5-5555-555-55x-6-6-6666-666-66x-8-8-8888-888-88x-8-8-8888-888-88x-------|
D|---------------------------------------------------------------------------|

e|-------------------------------------------|
B|---------------3-----------------3h4p3-----|
G|-----3-----------3-----3--------------3----|
D|---3---3---3---------3---3---3-------------|
A|-6-------6---6-----5-------5---5-----------|
D|-------------------------------------------|

e|-------------------------------------------|
B|---------------3-----------------3h4p3-----|
G|-----3-----------3-----3-------------------|
D|---3---3---3---------3---3---3-------------|
A|-6-------6---6-----5-------5---5-----------|
D|-------------------------------------------|



Rhythm (Guitar 1)  [0:31]
e|---------------------------------------------------------------------------|
B|---------------------------------------------------------------------------|
G|-------------------3-3-xxx-3-3-x-3/5\3-------------------------------------|
D|-1-1-xxx-1-1-xxxxx-3-3-xxx-3-3-x-3/5\3-1-1-xxx-1-1-1113-3-3333-3-33--------|
A|-1-1-xxx-1-1-xxxxx-1-1-xxx-1-1-x-1/3\1-1-1-xxx-1-1-1113-3-3333-3-33--------|
D|-1-1-xxx-1-1-xxxxx---------------------1-1-xxx-1-1-1113-3-3333-3-33--------|

Lead (Guitar 2) [0:31]
e|----------------------10-------------------------10h11p10~-|
B|-------11----------------11-------11-----------------------|
G|----10----10----10-------------10----10----10--------------|
D|-13----------13----13-------12----------12----12-----------|
A|-----------------------------------------------------------|
D|-----------------------------------------------------------|

e|----------------------10h11p10-8-8-8h10p8------------------|
B|-------11---------------------------------11-11-11\10------|
G|----10----10----10-----------------------------------------|
D|-13----------13----13--------------------------------------|
A|-----------------------------------------------------------|
D|-----------------------------------------------------------|



Verse:
Rhythm (Guitar 1) [0:41]
e|---------------------------------------------------------|
B|---------------------------------------------------------|
G|-33------33------33-----22-----22-----22-----------------|
D|-33------33------33-----33-----33-----33-----------------|
A|-11------11------11-----00-----00-----00-----------------|
D|---------------------------------------------------------|

e|---------------------------------------------------------|
B|---------------------------------------------------------|
G|-------------------------5--5-55--88-8-------------------|
D|-00------00------00------5--5-55--88-8-------------------|
A|-00------00------00------3--3-33--66-6-------------------|
D|-00------00------00--------------------------------------|

Lead (Guitar 2) [0:41]
e|---------------------------------------------------------|
B|---------------------------------------------------------|
G|-----3-3-3-----3-3-3---2h3p2--3-2h3p2--3-2h3p2-----------|
D|-0h3-------0h3-------------------------------------------|
A|---------------------------------------------------------|
D|---------------------------------------------------------|

e|---------------------------------------------------------|
B|-----3-------3-------------------------------------------|
G|-------3-------3------2h3p2---2h3p2---2h3p2--------------|
D|-1h3-----1h3-----1-3--------3-------3--------------------|
A|---------------------------------------------------------|
D|---------------------------------------------------------|



 [0:51]
e|---------------------------------------------------------------------------|
B|---------------------------------------------------------------------------|
G|-3-3-xxxx-33x3---xx2-2-xxxx-2-2-2------------------------------------------|
D|-3-3-xxxx-33x3---xx3-3-xxxx-3-3-3---1-1-1-1-1-1-1-113-3-3-3-3-3-3-3--------|
A|-1-1-xxxx-11x1---xx0-0-xxxx-0-0-0---1-1-1-1-1-1-1-113-3-3-3-3-3-3-3--------|
D|------------------------------------1-1-1-1-1-1-1-113-3-3-3-3-3-3-3--------|



Rhythm (Guitar 1) [1:01]
e|-333--333--333--333----------------------666--666--666--666--555--555--555--555-|
B|-333--333--333--333--888--888--888--888--666--666--666--666--666--666--666--666-|
G|-333--333--333--333--888--888--888--888--777--777--777--777--555--555--555--555-|x2
D|-555--555--555--555--888--888--888--888--888--888--888--888--777--777--777--777-|
A|-555--555--555--555--666--666--666--666--888--888--888--888--888--888--888--888-|
D|--------------------------------------------------------------------------------|

Lead (Guitar 2) [1:01]
e|-10----10----10----10----8----8----8----8----10----10----10----10----8-----|
B|----11----11----11----11---11---11---11---11----11----11----11----11---11--|
G|---------------------------------------------------------------------------|
D|---------------------------------------------------------------------------|
A|---------------------------------------------------------------------------|
D|---------------------------------------------------------------------------|

e|-8----11-10-8-10-10----10----10----10-11-13----13----13----13-11-10----10--|
B|---11---------------11----11----11----------11----11----11----------11-----|
G|---------------------------------------------------------------------------|
D|---------------------------------------------------------------------------|
A|---------------------------------------------------------------------------|
D|---------------------------------------------------------------------------|

e|----10----10----8----8----8----8-------------------------------------------|
B|-11----11----11---11---11---11---11----------------------------------------|
G|---------------------------------------------------------------------------|
D|---------------------------------------------------------------------------|
A|---------------------------------------------------------------------------|
D|---------------------------------------------------------------------------|


Bridge:
Rhythm (Guitar 1) [1:22]
e|---------------------------------------------------------------------------|
B|-----------------------------------------3---------------------------------|
G|-----0-------3-----------0-----------------3~-------------2-3-5-7----------|
D|---0---0---0---0-----1-3---3-1-0---0-3-0-------------3----3-5-7-8----------|
A|-------------------1-------------1-----------------3-----------------------|
D|-5-------5-------1-------------------------------3-------------------------|

e|---------------------------------------------------------------------------|
B|------------------------------------4-3-----3-1-----1----------------------|
G|----0-------3-----------0-----------------------------3---3-2-3------------|
D|--0---0---0---0-----1-3---3-1-0---3-------3-------3------------------------|
A|------------------1-------------1-------1----------------------------------|
D|5-------5-------1-------------------------------3-------1------------------|

Lead (Guitar 2) [1:22]
e|----------------8--10~---------8-10-----------------8-11-10-8--------------|
B|-11-------10-11---------11--11------11~----------11-----------11-8---------|
G|-------12--------------------------------10~--10-------------------10-8-7--|
D|----12---------------------------------------------------------------------|
A|---------------------------------------------------------------------------|
D|---------------------------------------------------------------------------|

e|---------/13~--------/15~--13-11-10-11-10-------------11-10~-----10--------|
B|-8-10-11-------10-11----------------------13-11----11---------------13~----|
G|------------------------------------------------10------------10-----------|
D|---------------------------------------------------------------------------|
A|---------------------------------------------------------------------------|
D|---------------------------------------------------------------------------|

e|---------------------------|
B|----13-11~---11-10-11------|
G|-10------------------------|
D|---------------------------|
A|---------------------------|
D|---------------------------|



 Outro/Solo [1:41]
e|-------------------------------------1------1----------------------------|
B|-----3---4-3---3-----1---4-3---3-------3~-----3-----4-3-----1-3----------|
G|-------3-----3-----3---3-----3-----3------3-------3-------3--------------|x6
D|---3--------------------------------------------1-------1----------------|
A|-1---------------3-------------------------------------------------------|
D|---------------------------------1---------------------------------------|



************************************

| /   slide up
| \   slide down
| h   hammer-on
| p   pull-off
| ~   vibrato
| +   harmonic
| x   Mute note
| b   Bend
| br  Bend release
| brb Bend release bend

************************************





Comments


Popular Ice Nine Kills tabs & chords
A Lifetime In A Week Tabs
Build A Bridge And Jump Off Tabs
Build Your Own Disaster Intro 2 Tabs
Cinder Blocks And Thank You Knots Intro Tabs
Finding Emo Intro 1 Tabs
Last Words Intro Tabs
Last Words Intro 2 Tabs
The Greatest Story Ever Told 1 Tabs
What I Really Learned In Study Hall 2 Tabs
The Simple Act Of Giving Up Ukulele


Song lyrics



↑ Back to top | Tablatures and chords are parodies/interpretations of the original songs. You may use it for private study, scholarship, research or language learning purposes only
© 2014 AZChords.com Contact us | Privacy policy | DMCA | Add/correct tabs | Request tabs | Top 50 tabs