>
 >
Wolf

Wolf Guitar Tabs

Iced Earth - Wolf chords, tabs, tablatures, lyrics

Guitar lessons | Add/correct | Request | Top 50 tabs Artists:  A B C D E F G H I J K L M N O P Q R S T U V W X Y Z 0-9

Wolf Guitar Tabs – Iced Earth

CD, Sheet music, Poster

Do you like Wolf? Share with your friends now
Bass TabsBass Tabs v2TabsTabs v2
Iced Earth:  Wolf



                          The Frozen Palace



Tuning: Eb

Intro
Guitar 1
eb|-------------------------------------------------------|
Bb|-------------------------------------------------------|
Gb|----9~---12-10--9h10-9~~-9h10-9~~\--7-5-4-5~--5-4---4~-|
Db|--------------------------------------------------7----|
Ab|-7-----------------------------------------------------|
Eb|-------------------------------------------------------|

eb|----------------------------------------------|
Bb|----------------------------------------------|
Gb|---4-5--4---------------4~~-------------------|
Db|-7---------7--6~~---6-7-------7--6~~--6h7-6~~-|
Ab|----------------------------------------------|
Eb|----------------------------------------------|

eb|----------------------------------------|
Bb|----------------------------------------|
Gb|-----4-5~~---4-5-7-7~~---5-7--9h10-9~~--|
Db|-6-7------------------------------------|
Ab|----------------------------------------|
Eb|----------------------------------------|

eb|------------------------------------------------------------------|
Bb|------------------------------------------------------------------|
Gb|-12-10--9~~--9h10-9~~--7-5-4-5~--5-4---4~----4-5-4------------4~~-|
Db|-------------------------------------7-----7-------7-6~~--6-7-----|
Ab|------------------------------------------------------------------|
Eb|------------------------------------------------------------------|

eb|-------------------------------------------------------|
Bb|-------------------------------------------------------|
Gb|---------------------4-5~~---4-5-7-7~~---5-7--9h10-9~~-|
Db|-7-6~--6h7-7~~---6-7-----------------------------------|
Ab|-------------------------------------------------------|
Eb|-------------------------------------------------------|


Guitar 2
eb|---12~---15-13-12h13-12~~--12h13-12~~\--10-8-7-8~--8-7----7~-|
Bb|-------------------------------------------------------10----|
Gb|-9-----------------------------------------------------------|
Db|-------------------------------------------------------------|
Ab|-------------------------------------------------------------|
Eb|-------------------------------------------------------------|

eb|----7-8--7----------------7~~-------------------|
Bb|-10--------10--9~~---9-10------10-9~~--9h10-9~~-|
Gb|------------------------------------------------|
Db|------------------------------------------------|
Ab|------------------------------------------------|
Eb|------------------------------------------------|

eb|------7-8~~---7-8-10-10~~---8-10--12h13-12~~-|
Bb|-9-10----------------------------------------|
Gb|---------------------------------------------|
Db|---------------------------------------------|
Ab|---------------------------------------------|
Eb|---------------------------------------------|

eb|-15-13-12~~--12h13-12~~---10-8-7-8~--8-7----7~-|
Bb|-----------------------------------------10----|
Gb|-----------------------------------------------|
Db|-----------------------------------------------|
Ab|-----------------------------------------------|
Eb|-----------------------------------------------|

eb|----7-8-7---------------7~~-|
Bb|-10-------10-9~~---9-10-----|
Gb|----------------------------|
Db|----------------------------|
Ab|----------------------------|
Eb|----------------------------|

eb|-------------------------7-8~~--7-8-10-10~~--8-10--12h13-12~~-|
Bb|-10-9~--9h10-10~~---9-10--------------------------------------|
Gb|--------------------------------------------------------------|
Db|--------------------------------------------------------------|
Ab|--------------------------------------------------------------|
Eb|--------------------------------------------------------------|



Riff 1 (Solo Rhythm)
eb|---------------------------------|
Bb|---------------------------------|
Gb|---------------------------------|
Db|-----------------------------2/3-|
Ab|-------2-----0-2-3-----2-----2/3-|
Eb|-0-000---000-------000---000-----|
    * *** * *** * * * *** * ***
eb|---------------------------------|
Bb|---------------------------------|
Gb|---------------------------------|
Db|-----------------------------3\2-|
Ab|-------2-----0-2-3-----2-----3\2-|
Eb|-0-000---000-------000---000-----|
    * *** * *** * * * *** * ***
eb|---------------------------------|
Bb|---------------------------------|
Gb|---------------------------------|
Db|-------------2/3-------------3\2-|
Ab|-------------2/3-------------3\2-|
Eb|-1-111-1-111-----1-111-1-111-----|
    * *** * ***     * *** * ***


Solo
eb|-------------------------------|
Bb|-------------------------------|
Gb|-9~----10-9~~------------------|
Db|----------------7-9-10~--9~--\-|
Ab|-------------------------------|
Eb|-------------------------------|

eb|-------------------------------------|
Bb|-------------------------------------|
Gb|-------------------------------------|
Db|-------------------------------------|
Ab|-------------------------------------|
Eb|-------------------------------------|

eb|-13~--12~--8-------------------------|
Bb|-------------------------------------|
Gb|-------------------------------------|
Db|-------------------------------------|
Ab|-------------------------------------|
Eb|-------------------------------------|

End solo


Riff 2
eb|-----------------------------------|
Bb|-----------------------------------|
Gb|-----------------------------------|
Db|-----------------------------------|
Ab|-------2-----0-2-3-----2-----0-2-3-|
Eb|-0-000---000-------000---000-------|
    * *** * *** * * * *** * *** * * *
  "Innocence tainted..."
eb|-------------------------------|
Bb|-------------------------------|
Gb|-------------------------------|
Db|-------------------------------|
Ab|-----2-----0-2-------3-----3-2-|
Eb|-000---000-----1-111---111-----|
    *** * *** * * * *** * *** * *
  "...pure lunacy..."

Riff 3
eb|---------------------------------|
Bb|---------------------------------|
Gb|---------------------------------|
Db|---------------------------------|
Ab|-------2-----2---------2-----2-3-|
Eb|-3-333---333---3-1-111---111-----|
    * *** * *** * * * *** * *** * *
   "Oh no..."
eb|---------------------------------|
Bb|---------------------------------|
Gb|---------------------------------|
Db|-------2-----2/3-------2-----3\2-|
Ab|-------2-----2/3-------2-----3\2-|
Eb|-0-000---000-----0-000---000-----|
    * ***   ***     * ***   ***
   "...this can't be..."


Play Riff 2   "His future concealed..."
Play Riff 3   "Oh no, this can't be..."


Riff 4
Guitar 1
eb|----0-----------------1--------------|
Bb|----0-----------------1--------------|
Gb|-------------------------------------|
Db|---------5----5----------------------|
Ab|-2-------3----2----3-------5----8----|
Eb|-0------------3----1-------3----6----|
   "Even a man..."

Guitar 2
eb|-----------------------------------------------------|
Bb|-----------------------------------------------------|
Gb|----------------------7-9------7-9-7~--7h9p7---------|
Db|---9------9-10-9-7-10-----10~----------------10-9-7~-|
Ab|-7------7--------------------------------------------|
Eb|-----------------------------------------------------|

Guitar 3
eb|------------------------10-12------10-12-10~--10h12p10-----------|
Bb|---12----12-13-12-10-13-------13~----------------------13-12-10~-|
Gb|-9-----9---------------------------------------------------------|
Db|-----------------------------------------------------------------|
Ab|-----------------------------------------------------------------|
Eb|-----------------------------------------------------------------|


Play Riff 2  "He who is bitten..."
Play Riff 3  "Oh no, this can't be..."
Play Riff 2  "The madness..."
Play Riff 3  "Oh no, this can't be..."
Play Riff 4  "Even a man..."


Riff 5
Guitar 1
eb|-------------------------------|
Bb|-------------------------------|
Gb|-------------------------------|
Db|-------------------------------|
Ab|-----8---7---5---8---7---5-7-8-|
Eb|-0-0---0---0---0---0---0-------|
    * * * *   *   *   *   * * * *
                                   x2
eb|---------------------------------|
Bb|---------------------------------|
Gb|---------------------------------|
Db|---------------------------------|
Ab|-------8---7---5---8---7---5-7-8-|
Eb|-000-0---0---0---0---0---0-------|
    *** *   *   *   *   *   * * * *
eb|------------------------------|
Bb|------------------------------|
Gb|------------------------------|
Db|-------------------10----9----|
Ab|-------8---7---5----7----7----|
Eb|-000-0---0---0---0--8----8----|
    *** *   *   *   *

Guitar 2 (Comes in the second time)
eb|-------------------------------|
Bb|-------------------------------|
Gb|----10---9---7--10---9---------|
Db|-----a---a---a---a---a---------|
Ab|-------------------------5-7-8-|
Eb|-0-0---------------------------|
    * *                     * * *
                                   x2
eb|---------------------------------|
Bb|---------------------------------|
Gb|------10---9---7--10---9---------|
Db|-------a---a---a---a---a---------|
Ab|---------------------------5-7-8-|
Eb|-000-0---------------------------|
    *** *                     * * *
eb|------------------------------|
Bb|------------------------------|
Gb|------10---9---7--------------|
Db|-------a---a---a---10----9----|
Ab|--------------------7----7----|
Eb|-000-0--------------8----8----|
    *** *


Riff 6
eb|--------------------------|
Bb|--------------------------|
Gb|--------------------------|
Db|-----------------10----9--|
Ab|------------------7----7--|
Eb|-000-000-000-000--8----8--|
    *** *** *** ***

Ending to Riff 6
eb|---------------|
Bb|---------------|
Gb|---------------|
Db|---------------|
Ab|--2--4--7---9--|
Eb|--3--5--8--10--|


Play Riff 2   "Now comes the rampage..."
Play Riff 3   "Oh no, it's maddening..."
Play Riff 2   "A shot from the darkness..."
Play Riff 3   "Oh no, it's maddening..."
Play Riff 4   "Even a man..."
Play Riff 5

Ending to Riff 5
eb|-----------------0--|
Bb|-----------------0--|
Gb|-----------------x--|
Db|-----------------2--|
Ab|--2--4--7---9----2--|
Eb|--3--5--8--10----0--|


Notation:

10b12      = pick the 10th fret, then bend to the 12th fret.
10b12r10   = pick the 10th fret, then bend to the 12th fret,
             then release to the 10th fret.
[10]12r10  = bend to the 12th fret from the 10th fret, pick,
             then release to the 10th fret.
10b12 [14] = pick the 14th fret while holding the previous bend.

10b15*     = tremolo bar bend, from the 10th fret to the 15th fret.
7d2*       = tremolo bar dive, from the 7th fret to the 2nd fret.
12~*       = tremolo bar vibrato.

x   =  mute with fret-hand
*   =  palm mute
X\\ =  pick slide
h   =  hammer-on
p   =  pull-off
~   =  vibrato
t   =  finger tap
/   =  slide up
\   =  slide down
h   =  natural harmonics
a   =  artificial harmonics
(9) =  ghost note
tm  =  trem picking
tr  =  trill





Comments


Popular Iced Earth tabs & chords
A Question Of Heaven 1 Bass Tabs
Jeckyl And Hyde Bass Tabs
The Dark Saga 1 Bass Tabs
The Last Laugh 2 Bass Tabs
The Phantom Opera Ghost Bass Tabs
Winter Nights Bass Tabs
Birth Of The Wicked 1 Tabs
Cataclysm Tabs
Dystopia 1 Tabs
I Died For You 2 Tabs


Song lyrics



↑ Back to top | Tablatures and chords are parodies/interpretations of the original songs. You may use it for private study, scholarship, research or language learning purposes only
© 2014 AZChords.com Contact us | Privacy policy | DMCA | Add/correct tabs | Request tabs | Top 50 tabs