» » »

Iced Earth, Last Laugh Bass tabs (ver.1)

Artists:  A B C D E F G H I J K L M N O P Q R S T U V W X Y Z # 

Last Laugh Bass tabs (ver.1)

Iced Earth Tabs
 Rating:
4/5 (4 votes)
Last Laugh lessons Tabs too difficult? Try these video lessons and learn fast
1
                Listen For Timing

F#||-------------------------------|------------------------------|
C#||*------------------------------|------------------------------|
G#||*------------------------------|------------------------------|
D#||---0-0-0--0-0-0--0-0-0--0-0-0--|--0-0-0--0-0-0--0-0-0--0-0-0--|


                                                              3x
------------------------------|-------------------------------||
------------------------------|------------------------------*||
------------------------------|------------------------------*||
--3-3-3--3-3-3--3-3-3--3-3-3--|--1-1-1--1-1-1--1-1-1--1-1-1---||


                                                                      
----------------------------------|----------------------------------|
*---------------------------------|----------------------------------|
*---------------------------------|----------------------------------|
---0--0-0-0-0-0-0-0-0-0-0-0-0-0-0-|--0-0-0-0-0-0-0-0-0-0-0-0-0-0-0-0-|


                                                                  
------------------------------|---------------------------------||
------------------------------|--------------------------------*||
------------------------------|--------------------------------*||
--3--2--0-0-0-0-2--1--0-0-0-0-|--1--0--0-0-0-0-0-0-0-0-0-0-0-0--||


                                                         
---------------------------|----------------------------|
*--------------------------|----------------------------|
*--------------------------|----------------------------|
---0--0--0--0--0--0--0--0--|--0--0--0--0--0--0--0-0-0-0-|


                                                            
------------------------------|---------------------------||
------------------------------|--------------------------*||
------------------------------|--------------------------*||
--3--2--0-0-0-0-2--1--0-0-0-0-|--1--0--0--0--0--0--0--0---||


                                                               
-------------------------------|------------------------------|
*------------------------------|------------------------------|
*------------------------------|------------------------------|
---0-0-0--0-0-0--0-0-0--0-0-0--|--0-0-0--0-0-0--0-0-0--0-0-0--|


                                                                
------------------------------|-------------------------------||
------------------------------|------------------------------*||
------------------------------|------------------------------*||
--3-3-3--3-3-3--3-3-3--3-3-3--|--1-1-1--1-1-1--1-1-1--1-1-1---||


                                                                      
----------------------------------|----------------------------------|
*---------------------------------|----------------------------------|
*---------------------------------|----------------------------------|
---0--0-0-0-0-0-0-0-0-0-0-0-0-0-0-|--0-0-0-0-0-0-0-0-0-0-0-0-0-0-0-0-|


                                                                  
------------------------------|---------------------------------||
------------------------------|--------------------------------*||
------------------------------|--------------------------------*||
--3--2--0-0-0-0-2--1--0-0-0-0-|--1--0--0-0-0-0-0-0-0-0-0-0-0-0--||


                                                         
---------------------------|----------------------------|
*--------------------------|----------------------------|
*--------------------------|----------------------------|
---0--0--0--0--0--0--0--0--|--0--0--0--0--0--0--0-0-0-0-|


                                                            
------------------------------|---------------------------||
------------------------------|--------------------------*||
------------------------------|--------------------------*||
--3--2--0-0-0-0-2--1--0-0-0-0-|--1--0--0--0--0--0--0--0---||


                                                                       
-----------------------------------|----------------------------------|
*----------------------------------|----------------------------------|
*----------------------------------|----------------------------------|
---0-0-0-0-0-0-0-0-0-0-0-0-0-0-0-0-|--0-0-0-0-0-0-0-0-0-0-0-0-0-0-0-0-|


                                                                      3x
----------------------------------|-----------------------------------||
----------------------------------|----------------------------------*||
----------------------------------|----------------------------------*||
--3-3-3-3-3-3-3-3-3-3-3-3-3-3-3-3-|--1-1-1-1-1-1-1-1-1-1-1-1-1-1-1-1--||


                                                                                
-------------------|------------------|------------------|---------------------|
-------------------|------------------|------------------|---------------------|
-------------------|------------------|------------------|---------------------|
--0----------------|------------------|------------------|------------0-0-1----|


                                                              
-------------------|---------------------|-------------------|
-------------------|---------------------|-------------------|
-------------------|---------------------|-------------------|
--0----------------|------------0-0-1----|--0----------------|


                                                                
---------------------|-------------------|---------------------|
---------------------|-------------------|---------------------|
---------------------|-------------------|---------------------|
------------0-0-1----|--0----------------|------------0-0-1----|


                                                                             
-------------------------|------------------------|-------------------------|
-------------------------|------------------------|-------------------------|
-------------------------|------------------------|-------------------------|
--0--0-0-0------0-0-0----|----0-0-0------0-0-1----|--0--0-0-0------0-0-0----|


                                                         
------------------------|-------------------------------|
------------------------|-------------------------------|
------------------------|-------------------------------|
----0-0-0------0-0-1----|--0--0-0-0--0-0-0--0-0-1-1-1-1-|


                                                             
----------------------------|-------------------------------|
----------------------------|-------------------------------|
----------------------------|-------------------------------|
--0--0-0-0--0-0-0--0-0-1----|--0--0-0-0--0-0-0--0-0-1-1-1-1-|


                                                             
----------------------------|-------------------------------|
----------------------------|-------------------------------|
----------------------------|-------------------------------|
--0--0-0-0--0-0-0--0-0-1----|--0--0-0-0--0-0-0--0-0-1-1-1-1-|


                                                             
----------------------------|-------------------------------|
----------------------------|-------------------------------|
----------------------------|-------------------------------|
--0--0-0-0--0-0-0--0-0-1----|--0--0-0-0--0-0-0--0-0-1-1-1-1-|


                                                              
----------------------------||-------------------------------|
----------------------------||*------------------------------|
----------------------------||*------------------------------|
--0--0-0-0--0-0-0--0-0-1----||---0-0-0--0-0-0--0-0-0--0-0-0--|


                                                              
------------------------------|------------------------------|
------------------------------|------------------------------|
------------------------------|------------------------------|
--0-0-0--0-0-0--0-0-0--0-0-0--|--3-3-3--3-3-3--3-3-3--3-3-3--|


                                                              
------------------------------|------------------------------|
------------------------------|------------------------------|
------------------------------|------------------------------|
--1-1-1--1-1-1--1-1-1--1-1-1--|--0-0-0--0-0-0--0-0-0--0-0-0--|


                                                              
------------------------------|------------------------------|
------------------------------|------------------------------|
------------------------------|------------------------------|
--0-0-0--0-0-0--0-0-0--0-0-0--|--3-3-3--3-3-3--3-3-3--3-3-3--|


                                                                   
------------------------------||----------------------------------|
------------------------------||*---------------------------------|
------------------------------||*---------------------------------|
--1-1-1--1-1-1--1-1-1--1-1-1--||---0--0-0-0-0-0-0-0-0-0-0-0-0-0-0-|


                                                                  
----------------------------------|------------------------------|
----------------------------------|------------------------------|
----------------------------------|------------------------------|
--0-0-0-0-0-0-0-0-0-0-0-0-0-0-0-0-|--3--2--0-0-0-0-2--1--0-0-0-0-|


                                                               
---------------------------------||---------------------------|
--------------------------------*||*--------------------------|
--------------------------------*||*--------------------------|
--1--0--0-0-0-0-0-0-0-0-0-0-0-0--||---0--0--0--0--0--0--0--0--|


                                                            
----------------------------|------------------------------|
----------------------------|------------------------------|
----------------------------|------------------------------|
--0--0--0--0--0--0--0-0-0-0-|--3--2--0-0-0-0-2--1--0-0-0-0-|


                                                                 
---------------------------||-----------------------------------|
--------------------------*||*----------------------------------|
--------------------------*||*----------------------------------|
--1--0--0--0--0--0--0--0---||---0-0-0-0-0-0-0-0-0-0-0-0-0-0-0-0-|


                                                                      
----------------------------------|----------------------------------|
----------------------------------|----------------------------------|
----------------------------------|----------------------------------|
--0-0-0-0-0-0-0-0-0-0-0-0-0-0-0-0-|--3-3-3-3-3-3-3-3-3-3-3-3-3-3-3-3-|


                                   3x                           
-----------------------------------||--------------------------|
----------------------------------*||--------------------------|
----------------------------------*||--------------------------|
--1-1-1-1-1-1-1-1-1-1-1-1-1-1-1-1--||--0--0--0--0--0--0--0--0--|


                                                            
----------------------------|------------------------------|
----------------------------|------------------------------|
----------------------------|------------------------------|
--0--0--0--0--0--0--0-0-0-0-|--3--2--0-0-0-0-2--1--0-0-0-0-|


                                                      
--------------------------|--------------------------|
--------------------------|--------------------------|
--------------------------|--------------------------|
--1--0--0--0--0--0--0--0--|--0--0--0--0--0--0--0--0--|


                                                            
----------------------------|------------------------------|
----------------------------|------------------------------|
----------------------------|------------------------------|
--0--0--0--0--0--0--0-0-0-0-|--3--2--0-0-0-0-2--1--0-0-0-0-|


                      
--------------------||
--------------------||
--------------------||
--1--0--------------||
            
Submit corrections

comments powered by Disqus
↑ Back to top | Iced Earth Bass for Last Laugh. Lyrics for acoustic guitar and electric guitar. 1 Tablatures and chords are parodies/interpretations of the original songs. You may use it for private study, scholarship, research or language learning purposes only