» » »

Iced Earth, Dark Saga Bass tabs (ver.1)

Artists:  A B C D E F G H I J K L M N O P Q R S T U V W X Y Z # 

Dark Saga Bass tabs (ver.1)

Iced Earth Tabs
 Rating:
4/5 (4 votes)
Dark Saga lessons Tabs too difficult? Try these video lessons and learn fast
1
                "(1)
|| Band: Iced Earth                          ||
||                                           ||
||                                           ||
|| Date: 19th June 2003                      ||
||                                           ||
|| Note: For any suggestions don't hesitate  ||
||                                           ||
||                                           ||
||-------------------------------------------||
||-------------------------------------------||
||                                           ||
|| Half Step Down Tuning                     ||
||                                           ||
|| Gb Db Ab Eb                               ||
||                                           ||
||-------------------------------------------||
-----------------------------------------------

Note: 
I've just tabbed the riffs of the song. Just join these riffs together 

Riff 1
Gb|-------------------------------------------------------------------|
Db|-------------------------------------------------------------------|
Ab|-------------------------------------------------------------------|
Eb|-00--000-000-000-000-000-000-000-000-000-000-000-000-000-000-000-0-|

Gb|------------------------------------------------------------------|
Db|------------------------------------------------------------------|
Ab|------------------------------------------------------------------|
Eb|-333-222-1111-----------------------------------------------------|


Riff 2
G|------------------------------------------------------------------|
D|------------------------------------------------------------------|
A|------------2/3------------3\2-------------2/3--------------------|
E|--00-00-00--------0-00-00-------00-00-00--------00-00-33-22-------|

Riff 3
G|------------------------------------------------------------------|
D|------------------------------------------------------------------|
A|-----------------77-----------------------------------------------|
E|--111-3-1-00-000--------------------------------------------------|



==                          TABLATURE EXPLANATION                          ==
----------                            ----------
----5h8--- Hammeron                   ----(8)--- Ghost Note
----------                            ----------
----5p8--- Pulloff                    ---8-[8]-- Tie
----------                            ----------
----5/8--- Slide Up                   -----x---- Dead Note
----------                            ----------
----5\8--- Slide Down                 ----------
----------                            ||------|| Repeat Start & End
----5~~~-- Vibrato                    ||*----*||
----------                            ||*----*||
----------                            ||------||


"When a man lies, he murders 
   some part of the world.
  These are the pale deaths
 which men miscall their lives.
     All this I cannot 
  bear to witness any longer
    Cannot the kingdom of
   salvation take me home?"

      - Cliff Burton
"            
Submit corrections

comments powered by Disqus
↑ Back to top | Iced Earth Bass for Dark Saga. Lyrics for acoustic guitar and electric guitar. 1 Tablatures and chords are parodies/interpretations of the original songs. You may use it for private study, scholarship, research or language learning purposes only