>
 >
Stand Alone

Stand Alone Guitar Tabs

Iced Earth - Stand Alone chords, tabs, tablatures, lyrics

Guitar lessons | Add/correct | Request | Top 50 tabs Artists:  A B C D E F G H I J K L M N O P Q R S T U V W X Y Z 0-9

Stand Alone Guitar Tabs – Iced Earth

CD, Sheet music, Poster

Do you like Stand Alone? Share with your friends now
Bass TabsTabsTabs v2
Iced Earth:  Stand Alone

      solos by:  John Twynam


                          The Frozen Palace



Tuning: Eb

Riff 1
eb|------------------------------------|
Bb|------------------------------------|
Gb|------------------------------------|
Db|------------------------------------|
Ab|-2------3----3-2--------------------|
Eb|-0-0000-1-00-1-0-000-0-000-00000000-|
      ****   **     *** * *** ********
   "Listen not to......."

Riff 2
eb|-------------------------------|
Bb|-------------------------------|
Gb|-------------------------------|
Db|-------------------------------|
Ab|-2-----3---3-2-----------------|
Eb|-0-0-0-1-0-1-0-0-0-0-0-0-0-0-0-|
      * *   *     * * * * * * * *
   "Father said....."

Riff 3 (guitar 2 plays the top notes)
eb|------------------------------------|
Bb|------------------------------------|
Gb|------------------------------------|
Db|------------------------------------|
Ab|-2-----7---7-8-7\-2-----7---7-10-8\-|
Eb|-0-0-0---0--------0-0-0---0---------|
      * *   *          * *   *
eb|----------------------------------|
Bb|----------------------------------|
Gb|----------------------------------|
Db|----------------------------------|
Ab|-2-----7---7-8-7------------------|
Eb|-0-0-0---0-------00-1-0-1-0-1-0-1-|
      * *   *       ** * * * * * * *
eb|------------------------------------|
Bb|------------------------------------|
Gb|-------------------------------4----|
Db|-------5---5-7-5\-------5---5----7\-|
Ab|-2-----7---7-8-7\-2-----7---7-10-8\-|
Eb|-0-0-0---0--------0-0-0---0---------|
      * *   *          * *   *
eb|------------------------------------|
Bb|------------------------------------|
Gb|------------------------------------|
Db|-------5---5-7-5--------------------|
Ab|-2-----7---7-8-7--------------------|
Eb|-0-0-0---0-------00-1-0-1-0-1-0-1-0-|
      * *   *       ** * * * * * * * *

Play Riff 2   "They only say......."


Riff 4                                        x2
eb|------------|-------------------------------|
Bb|------------|-------------------------------|
Gb|-5----------|-------------------------------|
Db|-5---5----3-|-2-----3---3-2-----------------|
Ab|-3---5----3-|-2-----3---3-2-----------------|
Eb|-----3----1-|-0-0-0-1-0-1-0-0-0-0-0-0-0-0-0-|
                   * *   *     * * * * * * * *
   "Stand alone......."

Play Riff 3

Riff 5 (solo rhythm)
eb|---------------------------------|
Bb|---------------------------------|
Gb|---------------------------------|
Db|--------------------------5----3-|
Ab|--------------------------5----3-|
Eb|-0-0-----0-0------0-0-----3----1-|
    * *     * *      * *

Solo

eb|-12p0-0-10p0-0-8p0-0-7p0-0-8p0-0-10p0-0-|
Bb|----------------------------------------|
Gb|----------------------------------------|
Db|----------------------------------------|
Ab|----------------------------------------|
Eb|----------------------------------------|

eb|-10p0-0-8p0-0-7p0-0-5p0-0-4p0-0-5p0-0-|
Bb|--------------------------------------|
Gb|--------------------------------------|
Db|--------------------------------------|
Ab|--------------------------------------|
Eb|--------------------------------------|

eb|-5p0-0-7p0-0-8p0-0--7--5--7p0-5p0-4-5/-17--17~~-|
Bb|------------------------------------------------|
Gb|------------------------------------------------|
Db|------------------------------------------------|
Ab|------------------------------------------------|
Eb|------------------------------------------------|

(Guitar 2 plays top notes)
eb|--17tm--------------17tm---20tm--19tm--17tm--15tm--|
Bb|--15tm--17tm--18tm--15tm---18tm--17tm--15tm--13tm--|
Gb|--------14tm--15tm---------------------------------|
Db|---------------------------------------------------|
Ab|---------------------------------------------------|
Eb|---------------------------------------------------|

eb|----------10h13p12p10-------------------------|
Bb|-10-12-13-------------13~---------------------|
Gb|---------------------------10~--10h12p10\9~~--|
Db|----------------------------------------------|
Ab|----------------------------------------------|
Eb|----------------------------------------------|

End solo

Play Riff 3

Riff 6
eb|-------------------------------|
Bb|-------------------------------|
Gb|-------------------------------|
Db|-------------------------------|
Ab|-------------------------------|
Eb|-0-0-1-1-0--000-0-000-00000000-|
    * * * * *  *** * *** ********

Play Riff 2   "Son, say what you mean......."
Play Riff 4   "Stand alone......."
Play Riff 5   Solo Rhythm

Solo

eb|-5-0-5-0-4-0-4-0-5-0-5-0-7-0-7-0--8-0-8-0-7-0-7-0-5-0-5-0-4-0-4-0-|
Bb|------------------------------------------------------------------|
Gb|------------------------------------------------------------------|
Db|------------------------------------------------------------------|
Ab|------------------------------------------------------------------|
Eb|------------------------------------------------------------------|

eb|-8-0-8-0-7-0-7-0-8-0-8-0-10-0-10-0--12-0-12-0-10-0-10-0-8-0-8-0-7-0-7-0-|
Bb|------------------------------------------------------------------------|
Gb|------------------------------------------------------------------------|
Db|------------------------------------------------------------------------|
Ab|------------------------------------------------------------------------|
Eb|------------------------------------------------------------------------|

Guitar 1
eb|-5-0-5-0-4-0-4-0-5-0-5-0-7-0-7-0--8-0-8-0-7-0-7-0-5-0-5-0-4-0-4-0-|
Bb|------------------------------------------------------------------|
Gb|------------------------------------------------------------------|
Db|------------------------------------------------------------------|
Ab|------------------------------------------------------------------|
Eb|------------------------------------------------------------------|
Guitar 2
eb|-8-0-8-0-7-0-7-0-8-0-8-0-10-0-10-0--12-0-12-0-10-0-10-0-8-0-8-0-7-0-7-0-|
Bb|------------------------------------------------------------------------|
Gb|------------------------------------------------------------------------|
Db|------------------------------------------------------------------------|
Ab|------------------------------------------------------------------------|
Eb|------------------------------------------------------------------------|

Guitar 1
eb|-8-0-8-0-7-0-7-0-8-0-8-0-10~----12----13----12----10~--|
Bb|-------------------------------------------------------|
Gb|-------------------------------------------------------|
Db|-------------------------------------------------------|
Ab|-------------------------------------------------------|
Eb|-------------------------------------------------------|
Guitar 2
eb|-12-0-12-0-10-0-10-0-12-0-12-0-13~----15----17----15----13~--|
Bb|-------------------------------------------------------------|
Gb|-------------------------------------------------------------|
Db|-------------------------------------------------------------|
Ab|-------------------------------------------------------------|
Eb|-------------------------------------------------------------|

Guitar 1
eb|-------------------------|
Bb|----12-13--15~--13-------|
Gb|-14-----------------14~--|
Db|-------------------------|
Ab|-------------------------|
Eb|-------------------------|

Guitar 2
eb|-----10--12--13~---12-------|
Bb|-13--------------------13~--|
Gb|----------------------------|
Db|----------------------------|
Ab|----------------------------|
Eb|----------------------------|

End solo

Ending
eb|--------------|
Bb|--------------|
Gb|--------------|
Db|--------------|
Ab|--------------|
Eb|-0-0-0-1-1-0--|





Comments


Popular Iced Earth tabs & chords
Burning Oasis Bass Tabs
Dark Saga Bass Tabs
Transylvania Bass Tabs
1776 1 Tabs
Birth Of The Wicked Tabs
Days Of Rage Tabs
Dystopia 1 Tabs
Jack 1 Tabs
Minions Of The Watch Tabs
Slave To The Dark Tabs


Song lyrics



↑ Back to top | Tablatures and chords are parodies/interpretations of the original songs. You may use it for private study, scholarship, research or language learning purposes only
© 2014 AZChords.com Contact us | Privacy policy | DMCA | Add/correct tabs | Request tabs | Top 50 tabs