» » »

Iced Earth, Melancholy Tabs (ver.2)

Artists:  A B C D E F G H I J K L M N O P Q R S T U V W X Y Z # 

Melancholy Tabs (ver.2)

Iced Earth Tabs
 Rating:
4/5 (4 votes)
Melancholy lessons Tabs too difficult? Try these video lessons and learn fast
1
                Melancholy by Iced Earth, from the album „Something wicked (this way comes)“

Tune down ½ step, here we go:

Riff 1
Guitar 1 (played on a 12 string acoustic)
eb|----------------------|
Bb|----------------------|
Gb|----------------------|
Db|-----9------9-7--5--4-|
Ab|---7------7-----------|
Eb|-0------0-------------|
   "Make the sadness..."
eb|----------------------------|
Bb|----------------------------|
Gb|----------------------------|
Db|---4---7--4------2---5--2---|
Ab|-5---5------5--3---3------3-|
Eb|----------------------------|


Guitar 2 (also played on a 12 string acoustic)
eb|---------------------------|
Bb|---------------------------|
Gb|---------------------------|
Db|------12-------12-10--9--7-|
Ab|---10-------10-------------|
Eb|-0--------0----------------|

eb|-------0-------------0------|
Bb|----------------------------|
Gb|----------7-------------5---|
Db|---7--------7----5--------5-|
Ab|-9---9---------7---7--------|
Eb|----------------------------|



Chorus riff (heavy dist)
eb|--------------------------------------|
Bb|--------------------------------------|
Gb|----------------7-------------------7-|
Db|------2---------7---------2---------7-|
Ab|------2----5-55-5---------2----5-55-5-|
Eb|-0-00-0--------------0-00-0-----------|
    * **      * **      * **      * **
 "I see the sadness..."

. . . go on w/ this
eb|-----|
Bb|-----|
Gb|-----|
Db|-----|
Ab|--2~-|
Eb|--0~-|



Riff 3 (player  under solo)
eb|-------------------------------|
Bb|-------------------------------|
Gb|------9-------9-------9------9-|
Db|------9-------9-------9------9-|
Ab|-7-77-7--7-77-7--7-77-7-7-77-7-|
Eb|-------------------------------|
    * **    * **    * **   * **
eb|-----------------------------|
Bb|-----------------------------|
Gb|----9-7-7-------7-5-5----5-7-|
Db|----9\7-7-------7\5-5----5/7-|
Ab|-77-7\5-5----55-5\3-3----3/5-|
Eb|-----------------------------|
    **          **

Solo
eb|------------------------------------7/-12~-|
Bb|--------------------10-12-13-12~-----------|
Gb|-------------9-11-12-----------------------|
Db|-------7-9-10------------------------------|
Ab|-7-9-10------------------------------------|
Eb|-------------------------------------------|
 
eb|-13p12p10-12~--(12)/19-19-20-17~\-|
Bb|----------------------------------|
Gb|----------------------------------|
Db|----------------------------------|
Ab|----------------------------------|
Eb|----------------------------------|

eb|-/14-15-15b17--14h15----|
Bb|--------------------17~-|
Gb|------------------------|
Db|------------------------|
Ab|------------------------|
Eb|------------------------|
 
eb|-19p15------15-19p15-15-20p15-15-|
Bb|------17--17---------------------|
Gb|--------16-----------------------|
Db|---------------------------------|
Ab|---------------------------------|
Eb|---------------------------------|

eb|-19p15------15-19p15-15-20p15-15-|
Bb|------17--17---------------------|
Gb|--------16-----------------------|
Db|---------------------------------|
Ab|---------------------------------|
Eb|---------------------------------|

eb|-19p15------15-19p15-15-20p15-15-|
Bb|------17--17---------------------|
Gb|--------16-----------------------|
Db|---------------------------------|
Ab|---------------------------------|
Eb|---------------------------------|

eb|-/22-20-19-20-19p17-17~----17-20-20p19-|
Bb|---------------------------------------|
Gb|---------------------------------------|
Db|---------------------------------------|
Ab|---------------------------------------|
Eb|---------------------------------------|

eb|-17h19p17h19p17h19-15h17p15h17\14-15p14------14-|
Bb|---------------------------------------15--15---|
Gb|-----------------------------------------14-----|
Db|------------------------------------------------|
Ab|------------------------------------------------|
Eb|------------------------------------------------|

eb|-15p14-19p14------|
Bb|--------------17~-|
Gb|------------------|
Db|------------------|
Ab|------------------|
Eb|------------------|

End solo


Ending solos:

Now we’ve got 2 guitars soloing together:
Guitar 1
eb|-12~----/15--14h15-14----15----\10-|
Bb|-----------------------------------|
Gb|-----------------------------------|
Db|-----------------------------------|
Ab|-----------------------------------|
Eb|-----------------------------------|

eb|-12~----/15--14h15-14----15----17----19-\-|
Bb|------------------------------------------|
Gb|------------------------------------------|
Db|------------------------------------------|
Ab|------------------------------------------|
Eb|------------------------------------------|

Guitar 2
eb|-15~----/19--17h19-17----19----\14-|
Bb|-----------------------------------|
Gb|-----------------------------------|
Db|-----------------------------------|
Ab|-----------------------------------|
Eb|-----------------------------------|

eb|-15~----/19--17h19-17----19----20----22-\-|
Bb|------------------------------------------|
Gb|------------------------------------------|
Db|------------------------------------------|
Ab|------------------------------------------|
Eb|------------------------------------------|


Solo #2
Guitar 1
eb|-7---------------------7---------------------|
Bb|---8---7/8~--7h8p7---8---8---7/8~--7h8p7---8-|
Gb|-----9-------------9-------9-------------9---|
Db|---------------------------------------------|
Ab|---------------------------------------------|
Eb|---------------------------------------------|

eb|--------------------------------------|
Bb|-/7~----8~----10~----12-10h12p10------|
Gb|--------------------------------12-11-|
Db|--------------------------------------|
Ab|--------------------------------------|
Eb|--------------------------------------|

Guitar 2
eb|-------------------------------------|
Bb|-------------------------------------|
Gb|-------------------------------------|
Db|-------------------------------------|
Ab|-------------------------------------|
Eb|-------------------------------------|

eb|-------------------------------------|
Bb|-------------------------------------|
Gb|-------------------------------------|
Db|-------------------------------------|
Ab|-------------------------------------|
Eb|-------------------------------------|


Enjoy!
By(e) SomberAngel
            
Submit corrections

comments powered by Disqus
↑ Back to top | Iced Earth Tabs for Melancholy. Lyrics for acoustic guitar and electric guitar. 1 Tablatures and chords are parodies/interpretations of the original songs. You may use it for private study, scholarship, research or language learning purposes only