>
 >
Life And Death 2

Life And Death 2 Bass Tabs

Iced Earth - Life And Death 2 chords, tabs, tablatures, lyrics

Guitar lessons | Add/correct | Request | Top 50 tabs Artists:  A B C D E F G H I J K L M N O P Q R S T U V W X Y Z 0-9

Life And Death 2 Bass Tabs – Iced Earth

CD, Sheet music, Poster

Do you like Life And Death 2? Share with your friends now
Bass TabsBass Tabs v2TabsTabs v2
                                Life and Death                                  


                                                                      Iced Earth
Dave



      E.  S Q    H           H        S S  S  E   E  S   
F#||----------------------|------------------12---------|
C#||----------------------|-------------9-10-----10-----|
G#||--7---7---------------|--------------------------0S-|
D#||--------0----L--------|--L--------L-----------------|


  E.  S Q    E.   S S S S  S    E.  S Q    E.  S Q        E.  S Q    H         
-----------------------------|-------------------------|----------------------|
--------7----L------7-9-7----|--------7----------------|----------------------|
--5---5----------10-------10-|--5---5------5---5-------|--7---7---------------|
-----------------------------|-------------------5S----|--------0----L--------|


  E.  S E  E.  S  S  E   E  S     E.  S Q    E.   S S S S  S  
--9---9-------------12---------|-----------------------------|
--------9--L---9-10-----10-----|--------7----L------7-9-7----|
----------------------------0S-|--5---5----------10-------10-|
-------------------------------|-----------------------------|


  E.  S Q    E.  S Q        E.  S  Q    H           E.  S  Q    H         
-------------------------|-----------------------|-----------------------|
--------7----------------|-----------------------|-----------------------|
--5---5------5---5-------|--------10-------------|--------10-------------|
-------------------5S----|--8---8-------8--------|--8---8-------8--------|


  E.  S Q    H           H        S S  S  E   E  S     E.  S Q    Q    S S S S  
----------------------|-----------9------12---------|--------------------------|
----------------------|-------------9-10-----10-----|--------7----L----L---7---|
--7---7---------------|--------------------------0S-|--5---5-------------5---5-|
--------0----L--------|--L--------------------------|--------------------------|


  S E.  Q    E.  S Q        E.  S  Q    Q.     S S    E.  S  Q    H         
-------------------------|-------------------------|-----------------------|
--7-9---7----------------|-------------------------|-----------------------|
-------------5---5-------|--------10---------------|--------10-------------|
-------------------5S----|--8---8-------8------L-3-|--8---8-------8--------|


  E.  S Q    H           H         S S  S  E   E  S   
-------------9--------|--L----------------12---------|
----------------------|--L-----------9-12-----10-----|
--7---7---------------|-----------10--------------0S-|
--------0----L--------|--L---------------------------|


  E.  S Q    E.  S S S S S    S E.  Q    E.  S Q       E.  S  Q    H         
---------------------------|------------------------|-----------------------|
--------7----L-----7---7---|--7-9---L---------------|-----------------------|
--5---5----------5---5---5-|-------------5---5-5----|--------10-------------|
---------------------------|------------------------|--8---8-------8--------|


  E.  S  Q    H           E.  S E.  S E.  S E.  S  
-----------------------|--------------------------|
-----------------------|--------------------------|
--------10-------------|--7---7-7---7-------------|
--8---8-------8--------|--------------0---0-0---0-|


  Q.      S S  S  S  S E   E  S     E.  S Q    Q    S S S S  
-----------------12--------------|--------------------------|
------------9-12----12-9---------|--------7----L----L---7---|
---------10---------------10--0S-|--5---5-------------5---5-|
--0------------------------------|--------------------------|


  S E.  Q    H           E.  S  Q    Q.     S S    E.  S  Q    H         
----------------------|-------------------------|-----------------------|
--7-9---7----L--------|-------------------------|-----------------------|
----------------------|--------10---------------|--------10-------------|
----------------------|--8---8-------8------L-3-|--8---8-------8--------|


  E.  S Q    H           W                 
----------------------|-------------------|
----------------------|-------------------|
--7---7---------------|-------------------|
--------0----L--------|--L----------------|


  S T T S S T T S S S S T T S S T T S S S    S T T S S T T S S S Q.     E   
------------------------------------------|--------------------------------|
------------------------------------------|--------------------------------|
------------------------------------------|--------------------------------|
--0-0-0-0-0-0-0-0-0-0-1-0-0-0-0-0-0-0-0-0-|--1-0-0-0-0-0-0-0-0-0-1------1--|


  S T T S S T T S S S S T T S S T T S S S    S T T S S T T S S S Q.     E   
------------------------------------------|--------------------------------|
------------------------------------------|--------------------------------|
------------------------------------------|--------------------------------|
--0-0-0-0-0-0-0-0-0-0-1-0-0-0-0-0-0-0-0-0-|--1-0-0-0-0-0-0-0-0-0-1------1--|


  S T T S S T T S S S S T T S S T T S S S    S T T S S T T S S S Q.     E   
------------------------------------------|--------------------------------|
------------------------------------------|--------------------------------|
--7-7-7-7-7-7-7-7-7-7-8-7-7-7-7-7-7-7-7-7-|--8-7-7-7-7-7-7-7-7-0-8------8--|
------------------------------------------|--------------------------------|


  S T T S S T T S S S S T T S S T T S S S    S T T S S T T S S S Q.     E   
------------------------------------------|--------------------------------|
------------------------------------------|--------------------------------|
--7-7-7-7-7-7-7-7-7-7-8-7-7-7-7-7-7-7-7-7-|--8-7-7-7-7-7-7-7-7-0-8------8--|
------------------------------------------|--------------------------------|


  S T T S S T T S S S S T T S S T T S S S    S T T S S T T S S S Q.     E   
------------------------------------------|--------------------------------|
------------------------------------------|--------------------------------|
--7-7-7-7-7-7-7-7-7-8-7-7-7-7-7-7-7-7-7-8-|--7-7-7-7-7-7-7-7-7-0-8------8--|
------------------------------------------|--------------------------------|


  S T T S S T T S S S S T T S S T T S S S    S T T S S T T S S S Q.     E   
------------------------------------------|--------------------------------|
------------------------------------------|--------------------------------|
--7-7-7-7-7-7-7-7-7-8-7-7-7-7-7-7-7-7-7-8-|--7-7-7-7-7-7-7-7-7-0-8------8--|
------------------------------------------|--------------------------------|


  H        S S S E  E  S     H         S  S  S E  E  S  
-------------------------|-----------------------------|
-------------------------|-----------------------------|
--7--------7-8-7-5--7--8-|--10--------10-12-10-8--7--5-|
-------------------------|-----------------------------|


  H        S S S E  E  S     H         S  S  S E  E  S  
-------------------------|-----------------------------|
-------------------------|-----------------------------|
--7--------7-8-7-5--7--8-|--10--------10-12-10-8--7--5-|
-------------------------|-----------------------------|


  E  S S E  S S S S S E  E  S     E   S  S  E   S  T  T  S  S  S E  E  S  
------------------------------|------------------------------------------|
------------------------------|------------------------------------------|
--7-------------7-8-7-5--7--8-|--10--10-10-10--10-10-10-10-12-10-8--7--5-|
-----0-0-0--0-0---------------|------------------------------------------|


  E  S S E  S S S S S E  E  S     E   S  S  E   S  T  T  S  S  S E  E.    
------------------------------|------------------------------------------|
------------------------------|------------------------------------------|
--7-------------7-8-7-5--7--8-|--10--10-10-10--10-10-10-10-12-10-8--7S---|
-----0-0-0--0-0---------------|------------------------------------------|


   S S S T T S T T S T T  S S S T T S T T S T T  
------------------------------------------------|
------------------------------------------------|
--10-7-7-7-7-7-7-7-7-7-7-10-7-7-7-7-7-7-7-7-7-7-|
------------------------------------------------|


  S S  S S S S S T T S S  S S S S S S  
--------------------------------------|
------10---9---8---------10---9---8---|
--8-8----8---8---8-8-8-8----8---8---8-|
--------------------------------------|


   S S S T T S T T S T T  S S S T T S T T S T T  
------------------------------------------------|
------------------------------------------------|
--10-7-7-7-7-7-7-7-7-7-7-10-7-7-7-7-7-7-7-7-7-7-|
------------------------------------------------|


  S S  S S S S S T T S S  S S S S S S  
--------------------------------------|
------10---9---8---------10---9---8---|
--8-8----8---8---8-8-8-8----8---8---8-|
--------------------------------------|


   S S S T T S T T S T T  S S S T T S T T S T T  
------------------------------------------------|
------------------------------------------------|
--10-7-7-7-7-7-7-7-7-7-7-10-7-7-7-7-7-7-7-7-7-7-|
------------------------------------------------|


  S S  S S S S S T T S S  S S S S S S  
--------------------------------------|
------10---9---8---------10---9---8---|
--8-8----8---8---8-8-8-8----8---8---8-|
--------------------------------------|


   S S S T T S T T S T T  S S S T T S T T S T T  
------------------------------------------------|
------------------------------------------------|
--10-7-7-7-7-7-7-7-7-7-7-10-7-7-7-7-7-7-7-7-7-7-|
------------------------------------------------|


  S S  S S S S S T T S S  S S S S S S    Q.     E  H         
--------------------------------------|---------------------|
------10---9---8---------10---9---8---|---------------------|
--8-8----8---8---8-8-8-8----8---8---8-|---------------------|
--------------------------------------|--0------------------|


  Q    Q    H           Q    Q    S S S E  E  S    Q    Q    S S S E  E  S  
---------------------|--------------------------|--------------------------|
---------------------|--------------------------|--------------------------|
---------------------|------------7-5-7-8--7--5-|--7---------7-5-7-8--7--5-|
-------0-------------|-------0------------------|-------0------------------|


   S S S T T S T T S T T  S S S T T S T T S T T  
------------------------------------------------|
------------------------------------------------|
--10-7-7-7-7-7-7-7-7-7-7-10-7-7-7-7-7-7-7-7-7-7-|
------------------------------------------------|


  S S  S S S S S T T S S  S S S S S S  
--------------------------------------|
------10---9---8---------10---9---8---|
--8-8----8---8---8-8-8-8----8---8---8-|
--------------------------------------|


   S S S T T S T T S T T  S S S T T S T T S T T  
------------------------------------------------|
------------------------------------------------|
--10-7-7-7-7-7-7-7-7-7-7-10-7-7-7-7-7-7-7-7-7-7-|
------------------------------------------------|


  S S  S S S S S T T S S  S S S S S S  
--------------------------------------|
------10---9---8---------10---9---8---|
--8-8----8---8---8-8-8-8----8---8---8-|
--------------------------------------|


   S S S T T S T T S T T  S S S T T S T T S T T  
------------------------------------------------|
------------------------------------------------|
--10-7-7-7-7-7-7-7-7-7-7-10-7-7-7-7-7-7-7-7-7-7-|
------------------------------------------------|


  S S  S S S S S T T S S  S S S S S S  
--------------------------------------|
------10---9---8---------10---9---8---|
--8-8----8---8---8-8-8-8----8---8---8-|
--------------------------------------|


   S S S T T S T T S T T  S S S T T S T T S T T  
------------------------------------------------|
------------------------------------------------|
--10-7-7-7-7-7-7-7-7-7-7-10-7-7-7-7-7-7-7-7-7-7-|
------------------------------------------------|


  S S  S S S S S T T S S  S S S S S S    H        H         
--------------------------------------|--------------------|
------10---9---8---------10---9---8---|--------------------|
--8-8----8---8---8-8-8-8----8---8---8-|--7--------5--------|
--------------------------------------|--------------------|


  H        H           H.              H        H           H        H         
--------------------|---------------|--------------------|--------------------|
--------------------|---------------|--------------------|--------------------|
--3--------2--------|---------------|--7--------5--------|--3--------2--------|
--------------------|--0------------|--------------------|--------------------|


  H.              E  E  H        S S E     H        Q    S S S S  
---------------|------------------------|------------------------|
---------------|------------------------|------------------------|
---------------|------------------------|--------------------0---|
--0------------|--0--------------1-0-3--|----------------3-1---1-|


  H        Q    S S E     H        Q    S S S S  
-----------------------|------------------------|
-----------------------|------------------------|
-----------------------|--------------------0---|
----------------1-0-3--|----------------3-1---1-|


  E  S E  S S S E  S S S S  E     E  S E  S S S E  S T T  S S  S S  
-------------------------------|-----------------------------------|
-------------------------------|-----------------------------------|
--7--8-7--8-5-8-7--7-7-8-7-10--|--7--8-7--8-5-8-7--7-7-7-10-8-12-8-|
-------------------------------|-----------------------------------|


  E  S E  S S S E  S S S S  E     E  S E  S S S E  S T T  S S  S S  
-------------------------------|-----------------------------------|
-------------------------------|-----------------------------------|
--7--8-7--8-5-8-7--7-7-8-7-10--|--7--8-7--8-5-8-7--7-7-7-10-8-12-8-|
-------------------------------|-----------------------------------|


  E  S E  S S S E  S S S S  E     E  S E  S S S E  S T T  S S  S S  
-------------------------------|-----------------------------------|
-------------------------------|-----------------------------------|
--7--8-7--8-5-8-7--7-7-8-7-10--|--7--8-7--8-5-8-7--7-7-7-10-8-12-8-|
-------------------------------|-----------------------------------|


  Q    E  S S S S S S E  S S    E  S E  S S S E  S S S S  E   
-----------------------------|-------------------------------|
-----------------------------|-------------------------------|
--5----5--5-5-3-3-3-3-0--0-0-|--7--8-7--8-5-8-7--7-7-8-7-10--|
-----------------------------|-------------------------------|


  E  S E  S S S E  S T T  S S  S S    E  S E  S S S E  S S S S  E   
-----------------------------------|-------------------------------|
-----------------------------------|-------------------------------|
--7--8-7--8-5-8-7--7-7-7-10-8-12-8-|--7--8-7--8-5-8-7--7-7-8-7-10--|
-----------------------------------|-------------------------------|


  E  S E  S S S E  S T T  S S  S S    Q    E  S S S S S S E  S S  
-----------------------------------|-----------------------------|
-----------------------------------|-----------------------------|
--7--8-7--8-5-8-7--7-7-7-10-8-12-8-|--5----5--5-5-3-3-3-3-0--0-0-|
-----------------------------------|-----------------------------|


  E  S E  S S S E  S S S S E     S S S S S S S S S S S S S S S S  
------------------------------|----------------------------------|
------------------------------|----------------------------------|
------------------------------|--5-5-5-5-5-5-5-5-3-3-3-3-0-0-0-0-|
--0--1-0--1-1-1-0--0-0-1-0-3--|----------------------------------|


  E  S E  S S S E  S S S S E     S S S S S S S S S S S S S S S S  
------------------------------|----------------------------------|
------------------------------|----------------------------------|
------------------------------|--5-5-5-5-5-5-5-5-3-3-3-3-0-0-0-0-|
--0--1-0--1-1-1-0--0-0-1-0-3--|----------------------------------|


  E  S E  S S S E  S S S S E     S S S S S S S S S S S S S S S S  
------------------------------|----------------------------------|
------------------------------|----------------------------------|
------------------------------|--5-5-5-5-5-5-5-5-3-3-3-3-0-0-0-0-|
--0--1-0--1-1-1-0--0-0-1-0-3--|----------------------------------|


  E  S E  S S S E  S S S S E     S S S S S S S S S S S S S S S S  
------------------------------|----------------------------------|
------------------------------|----------------------------------|
------------------------------|--5-5-5-5-5-5-5-5-3-3-3-3-0-0-0-0-|
--0--1-0--1-1-1-0--0-0-1-0-3--|----------------------------------|


  Q    Q    E  E  Q       Q    Q    Q    E  S S    Q    Q    Q    E  S S  
-----------------------|------------------------|------------------------|
-----------------------|------------------------|------------------------|
-----------------------|--5----5----5-----------|------------------------|
--6----5----3--1--0----|-----------------4--5-6-|--8----8----8----2--4-5-|


  Q    Q    Q    E  S S    Q    E  S S H           Q    Q    E  E  Q     
------------------------|-----------------------|-----------------------|
------------------------|-----------------------|-----------------------|
--2----2----2-----------|--0----0----2-0--------|-----------------------|
-----------------0--2-3-|----------3------------|--6----5----3--1--0----|


  Q    Q    Q    E  S S    Q    Q    Q    E  S S    Q    Q    Q    E  S S  
------------------------|------------------------|------------------------|
------------------------|------------------------|------------------------|
--5----5----5-----------|------------------------|--2----2----2-----------|
-----------------4--5-6-|--8----8----8----2--4-5-|-----------------0--2-3-|


  Q    E  S S H           Q    Q    E  E  Q       Q    Q    Q    E  S S  
-----------------------|-----------------------|------------------------|
-----------------------|-----------------------|------------------------|
--0----0----2-0--------|-----------------------|--5----5----5-----------|
----------3------------|--6----5----3--1--0----|-----------------4--5-6-|


  Q    Q    Q    E  S S    Q    Q    Q    E  S S    Q    E  S S H         
------------------------|------------------------|-----------------------|
------------------------|------------------------|-----------------------|
------------------------|--2----2----2-----------|--0----0----2-0--------|
--8----8----8----2--4-5-|-----------------0--2-3-|----------3------------|


  Q    Q    E  E  Q       Q    Q    Q    E  S S    Q    Q    Q    E  S S  
-----------------------|------------------------|------------------------|
-----------------------|------------------------|------------------------|
-----------------------|--5----5----5-----------|------------------------|
--6----5----3--1--0----|-----------------4--5-6-|--8----8----8----2--4-5-|


  Q    Q    Q    E  S S    Q    E  S S H                 
------------------------|-----------------------|-------|
------------------------|-----------------------|-------|
--2----2----2-----------|--0----0----2-0--------|-------|
-----------------0--2-3-|----------3------------|-------|


  S T T S S T T S S S S T T S S T T S S S    S T T S S T T S S S Q.     E   
------------------------------------------|--------------------------------|
------------------------------------------|--------------------------------|
--7-7-7-7-7-7-7-7-7-7-8-7-7-7-7-7-7-7-7-7-|--8-7-7-7-7-7-7-7-7-0-8------8--|
------------------------------------------|--------------------------------|


  S T T S S T T S S S S T T S S T T S S S    S T T S S T T S S S Q.     E   
------------------------------------------|--------------------------------|
------------------------------------------|--------------------------------|
--7-7-7-7-7-7-7-7-7-7-8-7-7-7-7-7-7-7-7-7-|--8-7-7-7-7-7-7-7-7-0-8------8--|
------------------------------------------|--------------------------------|


  S T T S S T T S S S S T T S S T T S S S    S T T S S T T S S S Q.     E   
------------------------------------------|--------------------------------|
------------------------------------------|--------------------------------|
--7-7-7-7-7-7-7-7-7-8-7-7-7-7-7-7-7-7-7-8-|--7-7-7-7-7-7-7-7-7-0-8------8--|
------------------------------------------|--------------------------------|


  S T T S S T T S S S S T T S S T T S S S    S T T S S T T S S S Q.     E   
------------------------------------------|--------------------------------|
------------------------------------------|--------------------------------|
--7-7-7-7-7-7-7-7-7-8-7-7-7-7-7-7-7-7-7-8-|--7-7-7-7-7-7-7-7-7-0-8------8--|
------------------------------------------|--------------------------------|


  Q.     E  H           Q    Q    H           Q    Q    S S S E  E  S  
---------------------|---------------------|--------------------------|
---------------------|---------------------|--------------------------|
---------------------|---------------------|------------7-5-7-8--7--5-|
--0------------------|-------0-------------|-------0------------------|


  Q    Q    S S S E  E  S    E  S T T S S S E  S S S E  S S  
--------------------------|---------------------------------|
--------------------------|---------------------------------|
--7---------7-5-7-8--7--5-|--5--5-5-5-5-5-5-----------------|
-------0------------------|-----------------3--3-3-3-3--3-3-|


  E  S T T S S  S E  S S S E  S S    E  S T T S S S E  S S S S S  S  S  
----------------------------------|------------------------------------|
----------------------------------|-----------------5--5-5-7-7-8-10-12-|
----------------------------------|--5--5-5-5-5-5-5--------------------|
--6--6-6-6-6-8-10-5--5-5-5-5--5-5-|------------------------------------|


   E   S  T  T  S  S  S  E   S  S  S  E   S  S  
-----------------------------------------------|
--12--12-12-12-12-14-15------------------------|
------------------------15--15-15-15-15--15-15-|
-----------------------------------------------|


  E  S T T S S S E  S S S E  S S    E  S T T S S  S E  S S S E  S S  
---------------------------------|----------------------------------|
---------------------------------|----------------------------------|
--5--5-5-5-5-5-5-----------------|----------------------------------|
-----------------3--3-3-3-3--3-3-|--6--6-6-6-6-8-10-5--5-5-5-5--5-5-|


  E  S T T S S S E  S S S S S  S  S     E   S  T  T  S  S  S  H        S  
------------------------------------|------------------------------------|
-----------------5--5-5-7-7-8-10-12-|--12--12-12-12-12-14-15-------------|
--5--5-5-5-5-5-5--------------------|------------------------15--------L-|
------------------------------------|------------------------------------|


   S S S T T S T T S T T  S S S T T S T T S T T  
------------------------------------------------|
------------------------------------------------|
--10-7-7-7-7-7-7-7-7-7-7-10-7-7-7-7-7-7-7-7-7-7-|
------------------------------------------------|


  S S  S S S S S T T S S  S S S S E      S E  E  S H        E          
--------------------------------------|------------------------|-----||
------10---9---8---------10---9---8S--|------------------------|-----||
--8-8----8---8---8-8-8-8----8---8-----|------------------------|-----||
--------------------------------------|--0-0--0----------------|-----||




Duration Legend
---------------
W - whole
H - half
Q - quarter
E - 8th
S - 16th
T - 32nd
X - 64th
. - note dotted
|-n-|  - n-tuplets


Tablature Legend
----------------
L - tied note
x - dead note
g - grace note
(n) - ghost note
> - accentuded note
NH - natural harmonic
AH - artificial harmonic
TH - tapped harmonic
SH - semi harmonic
PH - pitch harmonic
h - hammer on
p - pull off
b - bend
br - bendRelease
pb - preBend
pbr - preBendRelease
brb - bendReleaseBend
\n/ - tremolo bar dip
\n - tremolo bar dive
-/n - tremolo bar Release up
/n\ - tremolo bar inverted dip
/n - tremolo bar return
-\n - tremolo bar Release down
S - shift slide
s - legato slide
/ -  slide into from below or out of upwards
\ -  slide into from above or out of downwards
~ - vibrato
W - wide vibrato
tr - trill
TP - tremolo picking
T - tapping
S - slap
P - pop
< - fade in
^ - brush up
v - brush down





Comments


Popular Iced Earth tabs & chords
Diary Bass Tabs
The Last Laugh Bass Tabs
Winter Nights Bass Tabs
Wolf Intro Drum Tabs
Black Sabbath Tabs
Crown Of The Fallen Tabs
Greenface Intro 1 Tabs
The Revealing Tabs
Trannsylvania Tabs
Violate Tabs


Song lyrics



↑ Back to top | Tablatures and chords are parodies/interpretations of the original songs. You may use it for private study, scholarship, research or language learning purposes only
© 2014 AZChords.com Contact us | Privacy policy | DMCA | Add/correct tabs | Request tabs | Top 50 tabs