» » »

I Died For You Tabs (ver.3)

Artists:  A B C D E F G H I J K L M N O P Q R S T U V W X Y Z # 

I Died For You Tabs (ver.3)

Iced Earth
Rating:
0/5 (0 votes)

Hard to play? Try these video lessons and learn fast.
                Tabbler		: adr1an0(@gmx.net)


Intro & Verse
eb|----------------------------------------------------------------------|
Bb|----------------------------------------------------------------------|
Gb|-----0-----0-------------0---------------0-----0-------------0--------|
Db|---2-----2------------4-----4---4------2-----2------------4-----4---4-|
Ab|--------------------5---------5-------------------------5---------5---|
Eb|-0-----0-----------------------------0-----0--------------------------|
   "I can't believe..."
eb|----------------------------------------------------------------------|
Bb|----------------------------------------------------------------------|
Gb|-----0-----0-------------0---------------0-----0-------------0--------|
Db|---2-----2------------4-----4---4------2-----2------------4-----4---4-|
Ab|--------------------5---------5-------------------------5---------5---|
Eb|-0-----0-----------------------------0-----0--------------------------|

eb|----------------------------------------------------------------------|
Bb|----------------------------------------------------------------------|
Gb|-----0-----0-------------0---------------0-----0-------------0--------|
Db|---2-----2------------4-----4---4------2-----2------------4-----4---4-|
Ab|--------------------5---------5-------------------------5---------5---|
Eb|-0-----0-----------------------------0-----0--------------------------|


00:51
eb|--------------------------------------------------------------------------|
Bb|--------------------------------------------------------------------------|
Gb|--------------------------------------------------------------------------|
Db|------9-----9--7-----9-----7-7--------------9-----9--7-----9-----7-7------|
Ab|------7-777-7--5-----7-777-5-5--------------7-777-7--5-----7-777-5-5------|
Eb|--------------------------------------------------------------------------|
		"all how I love you..."

eb|--------------------------------------------------------------------------|
Bb|--------------------------------------------------------------------------|
Gb|--------------------------------------------------------------------------|
Db|------9-----9--7-----9-----7-7--------------9-----9--7-----9-----7-7------|
Ab|------7-777-7--5-----7-777-5-5--------------7-777-7--5-----7-777-5-5------|
Eb|--------------------------------------------------------------------------|


01:25
eb|----------------------------------------------------------------------|
Bb|----------------------------------------------------------------------|
Gb|-----0-----0-------------0---------------0-----0-------------0--------|
Db|---2-----2------------4-----4---4------2-----2------------4-----4---4-|
Ab|--------------------5---------5-------------------------5---------5---|
Eb|-0-----0-----------------------------0-----0--------------------------|
	"the pain is just to much..."

01:42
Guitar1					Guitar2
eb|----------------------------------|	eb|--------------------------------|
Bb|----------------------------------|	Bb|-12--10\8--8----10--12--10------|
Gb|-----0-----0-------------0--------|	Gb|-----------------------------11-|
Db|---2-----2------------4-----4---4-|	Db|--------------------------------|
Ab|--------------------5---------5---|	Ab|--------------------------------|
Eb|-0-----0--------------------------|	Eb|--------------------------------|
					
eb|----------------------------------|	eb|--------------------------------|
Bb|----------------------------------|	Bb|-12--10\8--8----10--12--10------|
Gb|-----0-----0-------------0--------|	Gb|-----------------------------11-|
Db|---2-----2------------4-----4---4-|	Db|--------------------------------|
Ab|--------------------5---------5---|	Ab|--------------------------------|
Eb|-0-----0--------------------------|	Eb|--------------------------------|



01:59

eb|--------------------------------------------------------------------------|
Bb|--------------------------------------------------------------------------|
Gb|--------------------------------------------------------------------------|
Db|------9-----9--7-----9-----7-7--------------9-----9--7-----9-----7-7------|
Ab|------7-777-7--5-----7-777-5-5--------------7-777-7--5-----7-777-5-5------|
Eb|--------------------------------------------------------------------------|
			   "the pain will gouuu away.."

eb|--------------------------------------------------------------------------|
Bb|--------------------------------------------------------------------------|
Gb|--------------------------------------------------------------------------|
Db|------9-----9--7-----9-----7-7--------------9-----9--7-----9-----7-7------|
Ab|------7-777-7--5-----7-777-5-5--------------7-777-7--5-----7-777-5-5------|
Eb|--------------------------------------------------------------------------|



02:33
Guitar 2  plays thsis until the end of melody
eb|------------------------------------|
Bb|------------------------------------|
Gb|------------------------------------|
Db|------9-----9--7-----9-----7-7------|
Ab|------7-777-7--5-----7-777-5-5------|
Eb|------------------------------------|

guitar 1 plays this solo

Solo (Both guitars displayed in entirety sequentially)
Guitar 1
eb|------17r-------------------17r----------------------------------------|
Bb|---20b---20-19-20-17-----20b---20-19-20-15---17-16-17------------------|
Gb|-----------------------------------------------------------------------|
Db|-----------------------------------------------------------------------|
Ab|-----------------------------------------------------------------------|
Eb|-----------------------------------------------------------------------|

eb|------17r-------------------17r----------------------------------------|
Bb|---20b---20-19-20-17-----20b---20-19-20-15---17-16-17------------------|
Gb|-----------------------------------------------------------------------|
Db|-----------------------------------------------------------------------|
Ab|-----------------------------------------------------------------------|
Eb|-----------------------------------------------------------------------|



eb|-----------------------------------------------------------------------|
Bb|--20-19-20-17~---20-19-15-12~------------------12-10-12-10-------------|
Gb|-----------------------------------15-17-19-15-------------------------|
Db|-----------------------------------------------------------------------|
Ab|-----------------------------------------------------------------------|
Eb|-----------------------------------------------------------------------|

eb|-----------------------------------------------------------------------|
Bb|--20-19-20-17~---20-19-15-12~------------------12-10-12-10-------------|
Gb|-----------------------------------15-17-19-15-------------------------|
Db|-----------------------------------------------------------------------|
Ab|-----------------------------------------------------------------------|
Eb|-----------------------------------------------------------------------|

eb|-----------------------------------------------------------------------|
Bb|--20-19-20-17~---20-19-15-12~------------------12-10-12-10-------------|
Gb|-----------------------------------15-17-19-15-------------------------|
Db|-----------------------------------------------------------------------|
Ab|-----------------------------------------------------------------------|
Eb|-----------------------------------------------------------------------|

eb|-----------------------------------------------------------------------|
Bb|--20-19-20-17~---20-19-15-12~------------------12-10-12-10-------------|
Gb|-----------------------------------15-17-19-15-------------------------|
Db|-----------------------------------------------------------------------|
Ab|-----------------------------------------------------------------------|
Eb|-----------------------------------------------------------------------|

03:22
Outro
eb|-19--------17------19-19----20--------17-----------------------------------------|
Bb|----171717----1717-------17----171717----1717-20-17---20\19~----20-22----20-22-19|
Gb|---------------------------------------------------------------------------------|
Db|---------------------------------------------------------------------------------|
Ab|---------------------------------------------------------------------------------|
Eb|---------------------------------------------------------------------------------|


This is all, I think this is right.
            
Hard to play? Try these video lessons and learn fast. | Correct




comments powered by Disqus
↑ Back to top | Tablatures and chords are parodies/interpretations of the original songs. You may use it for private study, scholarship, research or language learning purposes only