» » »

Ghost Of Freedom Tabs (ver.2)

Artists:  A B C D E F G H I J K L M N O P Q R S T U V W X Y Z # 

Ghost Of Freedom Tabs (ver.2)

Iced Earth
Rating:
0/5 (0 votes)

Hard to play? Try these video lessons and learn fast.
                Iced Earth
Horror Show
Ghost Of Freedom

This is my first tab, sounds pretty good, only have the
first part, basically the verse, the solo is coming soon.

------------0------------------------
---------------1-----1---------------
--------2---------2------------------
-----2-------------------------------
--0----------------------------------
-------------------------------------


-------------------------------------
-----------3--1----------------------
--------0----------------------------
-----2-------------------------------
--3----------------------------------
-------------------------------------

------------2------------------------
---------------2-----2---------------
------------------0------------------
--------0----------------------------
-----2-------------------------------
--3----------------------------------

-------------------------------------
-----------1--3p1--0--1--------------
--------0----------------------------
-----2-------------------------------
--3----------------------------------
-------------------------------------
            
Hard to play? Try these video lessons and learn fast. | Correct




comments powered by Disqus
↑ Back to top | Tablatures and chords are parodies/interpretations of the original songs. You may use it for private study, scholarship, research or language learning purposes only