» » »

Iced Earth, Enter The Realm Tabs (ver.1)

Artists:  A B C D E F G H I J K L M N O P Q R S T U V W X Y Z # 

Enter The Realm Tabs (ver.1)

Iced Earth Tabs
Rating:
0/5 (0 votes)
Enter The Realm lessons Tabs too difficult? Try these video lessons and learn fast
                Iced Earth:  Enter the Realm



                          The Frozen Palace



Tuning: Eb

Riff 1

Guitar 1
eb|---------2---------------2---------|
Bb|-------3---3-----------2---2-------|
Gb|-----4-------4-------4-------4-----|
Db|---4-----------4---4-----------4---|
Ab|-2---------------2---------------2-|
Eb|-----------------------------------|

eb|---------2---------------2-------|
Bb|-------3---3-----------2---2-----|
Gb|-----4-------4-------4-------4---|
Db|---4-----------4---4-------------|
Ab|-2---------------2-------------2-|
Eb|---------------------------------|

eb|---------1---------------1---------|
Bb|-------2---2-----------1---1-------|
Gb|-----3-------3-------3-------3-----|
Db|---3-----------3---3-----------3---|
Ab|-1---------------1---------------1-|
Eb|-----------------------------------|

eb|---------1---------------1-------|
Bb|-------2---2-----------1---1-----|
Gb|-----3-------3-------3-------3---|
Db|---3-----------3---3-------------|
Ab|-1---------------1-------------1-|
Eb|---------------------------------|

Guitar 2
eb|-------------------------------------------|
Bb|-------------------------------------------|
Gb|-------------------------------------------|
Db|-------4-5-4---4-5-4-------4-5-4-2-4-5-4-2-|
Ab|-2---2---------------2---2-----------------|
Eb|-------------------------------------------|

eb|-------------------------------------------|
Bb|-------------------------------------------|
Gb|-------------------------------------------|
Db|-------3-4-3---3-4-3-------3-4-3-1-3-4-3-1-|
Ab|-1---1---------------1---1-----------------|
Eb|-------------------------------------------|


Riff 2
eb|---------3-------------2-3p2-2h3-|
Bb|-------3---3---------3-----------|
Gb|-----0-------0-----2-------------|
Db|---2-----------0-0---------------|
Ab|-3-------------------------------|
Eb|---------------------------------|


Riff 3
eb|---------------------------------|
Bb|---------------------------------|
Gb|-----4-----5-----4-----2-----2---|
Db|-2-2---2-2---2-2---2-2---2-2---2-|
Ab|---------------------------------|
Eb|---------------------------------|

eb|---------------------------------|
Bb|---------------------------------|
Gb|-----2-----5-----4-----2-----2---|
Db|-3-3---3-3---3-3---3-3---3-3---3-|
Ab|---------------------------------|
Eb|---------------------------------|

This is played over riff 3, it's hard to hear
eb|---------------------------------|
Bb|----12-----------------13--------|
Gb|-12------12---------12------14~--|
Db|---------------------------------|
Ab|---------------------------------|
Eb|---------------------------------|
            
Submit corrections

comments powered by Disqus
↑ Back to top | Iced Earth Tabs for Enter The Realm. Lyrics for acoustic guitar and electric guitar. Tablatures and chords are parodies/interpretations of the original songs. You may use it for private study, scholarship, research or language learning purposes only