>
 >
Depths Of Hell

Depths Of Hell Bass Tabs

Iced Earth - Depths Of Hell chords, tabs, tablatures, lyrics

Guitar lessons | Add/correct | Request | Top 50 tabs Artists:  A B C D E F G H I J K L M N O P Q R S T U V W X Y Z 0-9

Depths Of Hell Bass Tabs – Iced Earth

CD, Sheet music, Poster

Do you like Depths Of Hell? Share with your friends now
Bass TabsTabs



    Intro:
   "Angels coming from above..."
G |--------------------------|
D |--------------------------| repeat 6x
A |--------------------------|
E |-----------1-1-1-0--------|
         verse:
   "Battles won,and nothing gained.."
G |-------------------------------------------------------|
D |-------------------------------------------------------|
A |-------------------------------------------------------|
E |-0-00-00-00-0-0000--0-00-00-00-0-0000-1-11-11-11-1-3-1-|

   chorus:"from the depths of hell"

G |--------------------------------|
D |--------------------------------| repeat 2x
A |----------------------------2-1-|
E |1-1-1-1--1-0---0-00-00-00-0-----|

        pre solo break down:
this is the part in between the chorus and the solo.where the
chorus sorta breaks down.
G |---------------------------------|
D |---------------------------------|
A |---------------------------------|
E |1111-1-0-2222-2-0-3333-3-0-2-1-0-|

     gtr solo:
G|---------------|-----------------|---------------|
D|---------------|-----------------|---------------|
A|------------2-1|-------------1-2-|------------2-1|
E|0-00-00-00-0---|1-11-11-11-1-----|0-00-00-00-0---|

just repeat the intro,verse,chorus,and the pre solo breakdown thing that i dont have a 
name for. all one more time





Comments


Popular Iced Earth tabs & chords
Colors Bass Tabs
Dragon's Child Bass Tabs
Violate Bass Tabs
Winter Nights Bass Tabs
A Question Of Heaven Tabs
Attila 1 Tabs
Boiling Point Tabs
Devil To Pay Tabs
Hold At All Costs Tabs
Waterloo 1 Tabs


Song lyrics



↑ Back to top | Tablatures and chords are parodies/interpretations of the original songs. You may use it for private study, scholarship, research or language learning purposes only
© 2014 AZChords.com Contact us | Privacy policy | DMCA | Add/correct tabs | Request tabs | Top 50 tabs