>
 >
Colors 2

Colors 2 Bass Tabs

Iced Earth - Colors 2 chords, tabs, tablatures, lyrics

Guitar lessons | Add/correct | Request | Top 50 tabs Artists:  A B C D E F G H I J K L M N O P Q R S T U V W X Y Z 0-9

Colors 2 Bass Tabs – Iced Earth

CD, Sheet music, Poster

Do you like Colors 2? Share with your friends now
Bass TabsBass Tabs v2Tabs
Colors                                      


                                                                      Iced Earth
Dave



      S S S S S S S S S S S S S S S S    S S S S S S S S S S S S S S S S  
F#||----------------------------------|----------------------------------|
C#||----------------------------------|----------------------------------|
G#||----------------------------------|----------------------------------|
D#||--0-0-0-0-0-0-0-0-0-0-0-0-0-0-0-2-|--3-3-3-3-3-3-3-3-3-3-3-3-3-3-5-3-|


  S S S S S S S S S S S S S S S S    S S S S S S S S S S S S S S S S  
----------------------------------|----------------------------------|
----------------------------------|----------------------------------|
----------------------------------|----------------------------------|
--2-2-2-2-2-2-2-2-2-2-2-2-2-2-3-2-|--0-0-0-0-0-0-0-0-0-0-0-0-0-0-0-0-|


  S S S S S S S S S S S S S S S S    S S S S S S S S S S S S S S S S  
----------------------------------|----------------------------------|
----------------------------------|----------------------------------|
----------------------------------|----------------------------------|
--0-0-0-0-0-0-0-0-0-0-0-0-0-0-0-2-|--3-3-3-3-3-3-3-3-3-3-3-3-3-3-5-3-|


  S S S S S S S S S S S S S S S S    S S S S S S S S S S S S S S S S  
----------------------------------|----------------------------------|
----------------------------------|----------------------------------|
----------------------------------|----------------------------------|
--2-2-2-2-2-2-2-2-2-2-2-2-2-2-3-2-|--0-0-0-0-0-0-0-0-0-0-0-0-0-0-0-0-|


  S S S S S S S S S S S S S S S S    S S S S S S S S S S S S S S S S  
----------------------------------|----------------------------------|
----------------------------------|----------------------------------|
----------------------------------|----------------------------------|
--0-0-0-0-0-0-0-0-0-0-0-0-0-0-0-2-|--3-3-3-3-3-3-3-3-3-3-3-3-3-3-5-3-|


  S S S S S S S S S S S S S S S S    S S S S S S S S S S S S S S S S  
----------------------------------|----------------------------------|
----------------------------------|----------------------------------|
----------------------------------|----------------------------------|
--2-2-2-2-2-2-2-2-2-2-2-2-2-2-3-2-|--0-0-0-0-0-0-0-0-0-0-0-0-0-0-0-0-|


  S S S S S S S S S S S S S S S S    S S S S S S S S S S S S S S S S  
----------------------------------|----------------------------------|
----------------------------------|----------------------------------|
----------------------------------|----------------------------------|
--0-0-0-0-0-0-0-0-0-0-0-0-0-0-0-2-|--3-3-3-3-3-3-3-3-3-3-3-3-3-3-5-3-|


  S S S S S S S S S S S S S S S S    S S S S S S S S S S S S S S S S  
----------------------------------|----------------------------------|
----------------------------------|----------------------------------|
----------------------------------|----------------------------------|
--2-2-2-2-2-2-2-2-2-2-2-2-2-2-3-2-|--0-0-0-0-0-0-0-0-0-0-0-0-0-0-0-0-|


  S S S S S S S S S S S S S S S S    S S S S S S S S S S S S S S S S  
----------------------------------|----------------------------------|
----------------------------------|----------------------------------|
----------------------------------|----------------------------------|
--0-0-0-0-0-0-0-0-0-0-0-0-0-0-0-2-|--3-3-3-3-3-3-3-3-3-3-3-3-3-3-5-3-|


  S S S S S S S S S S S S S S S S    S S S S S S S S S S S S S S S S  
----------------------------------|----------------------------------|
----------------------------------|----------------------------------|
----------------------------------|----------------------------------|
--2-2-2-2-2-2-2-2-2-2-2-2-2-2-3-2-|--0-0-0-0-0-0-0-0-0-0-0-0-0-0-0-0-|


  S T T S S E  S T T S S S S E.  S    S S S S S S S S S S S S E   E    
-----------------------------------|----------------------------------|
-----------------------------------|----------------------------------|
-----------------------------------|----------------------------------|
--0-0-0-0-0-3--3-3-3-3-3-5-3-2---0-|--2-2-2-2-3-3-3-3-2-2-3-2-0--12S--|


  S T T S S E  S T T S S S S E.  S    S S S S S S S S S S S S E   E    
-----------------------------------|----------------------------------|
-----------------------------------|----------------------------------|
-----------------------------------|----------------------------------|
--0-0-0-0-0-3--3-3-3-3-3-5-3-2---0-|--2-2-2-2-3-3-3-3-2-2-3-2-0--12S--|


  S S S S S S S S S S S S S S S S    S S S S S S S S S S S S S S S S  
----------------------------------|----------------------------------|
----------------------------------|----------------------------------|
----------------------------------|----------------------------------|
--0-0-0-0-0-0-0-0-0-0-0-0-0-0-0-2-|--3-3-3-3-3-3-3-3-3-3-3-3-3-3-5-3-|


  S S S S S S S S S S S S S S S S    S S S S S S S S S S S S S S S S  
----------------------------------|----------------------------------|
----------------------------------|----------------------------------|
----------------------------------|----------------------------------|
--2-2-2-2-2-2-2-2-2-2-2-2-2-2-3-2-|--0-0-0-0-0-0-0-0-0-0-0-0-0-0-0-0-|


  S S S S S S S S S S S S S S S S    S S S S S S S S S S S S S S S S  
----------------------------------|----------------------------------|
----------------------------------|----------------------------------|
----------------------------------|----------------------------------|
--0-0-0-0-0-0-0-0-0-0-0-0-0-0-0-2-|--3-3-3-3-3-3-3-3-3-3-3-3-3-3-5-3-|


  S S S S S S S S S S S S S S S S    S S S S S S S S S S S S S S S S  
----------------------------------|----------------------------------|
----------------------------------|----------------------------------|
----------------------------------|----------------------------------|
--2-2-2-2-2-2-2-2-2-2-2-2-2-2-3-2-|--0-0-0-0-0-0-0-0-0-0-0-0-0-0-0-0-|


  S T T S S E  S T T S S S S E.  S    S S S S S S S S S S S S E   E    
-----------------------------------|----------------------------------|
-----------------------------------|----------------------------------|
-----------------------------------|----------------------------------|
--0-0-0-0-0-3--3-3-3-3-3-5-3-2---0-|--2-2-2-2-3-3-3-3-2-2-3-2-0--12S--|


  S T T S S E  S T T S S S S E.  S    S S S S S S S S S S S S Q     
-----------------------------------|-------------------------------|
-----------------------------------|-------------------------------|
-----------------------------------|-------------------------------|
--0-0-0-0-0-3--3-3-3-3-3-5-3-2---0-|--2-2-2-2-3-3-3-3-2-2-3-2-0----|


  E  S S E.  S S S S S S S S S    E  S S E.  S S S S S S S S S  
-------------------------------|-------------------------------|
-------------------------------|-------------------------------|
-------------------------------|-------------------------------|
--0--0-0-0---0-2-3-2-0-3-2-0-0-|--1--1-1-1---0-2-3-2-0-3-2-0-0-|


  E  S S E.  S S S S S S S S S    E  S S E.  S S S S S S S S S  
-------------------------------|-------------------------------|
-------------------------------|-------------------------------|
-------------------------------|-------------------------------|
--0--0-0-0---0-2-3-2-0-3-2-0-0-|--1--1-1-1---0-2-3-2-0-3-2-0-0-|


  E  S S E.  S S S S S S S S S    E  S S E.  S S S S S S S S S  
-------------------------------|-------------------------------|
-------------------------------|-------------------------------|
-------------------------------|-------------------------------|
--0--0-0-0---0-2-3-2-0-3-2-0-0-|--1--1-1-1---0-2-3-2-0-3-2-0-0-|


  E  S S E.  S S S S S S S S S    E  S S E.  S S S S S S S S S  
-------------------------------|-------------------------------|
-------------------------------|-------------------------------|
-------------------------------|-------------------------------|
--0--0-0-0---0-2-3-2-0-3-2-0-0-|--1--1-1-1---0-2-3-2-0-3-2-0-0-|


  S H.           E.             E   S T T S T T S T T S T T S T T S T T S S  
---------------------|-------|----------------------------------------------|
---------------------|-------|----------------------------------------------|
---------------------|-------|--7S--L---------------------------------------|
--0------------------|-------|------0-0-0-0-0-0-0-0-0-0-0-0-0-0-0-0-0-0-0-0-|


  S T T S S S S S S S T T S S S S S S  
--------------------------------------|
--6-6-6-6-7-7-7-6-6-------------------|
--------------------7-7-7-7-8-8-8-7-6-|
--------------------------------------|


  E   S T T S T T S T T S T T S T T S T T S S  
----------------------------------------------|
----------------------------------------------|
--7S--L---------------------------------------|
------0-0-0-0-0-0-0-0-0-0-0-0-0-0-0-0-0-0-0-0-|


  S T T S S S S S S S T T S S S S S S  
--------------------------------------|
--6-6-6-6-7-7-7-6-6-------------------|
--------------------7-7-7-7-8-8-8-7-6-|
--------------------------------------|


  E   S T T S T T S T T S T T S T T S T T S S  
----------------------------------------------|
----------------------------------------------|
--7S--L---------------------------------------|
------0-0-0-0-0-0-0-0-0-0-0-0-0-0-0-0-0-0-0-0-|


  S T T S S S S S S S T T S S S S S S  
--------------------------------------|
--6-6-6-6-7-7-7-6-6-------------------|
--------------------7-7-7-7-8-8-8-7-6-|
--------------------------------------|


  E   S T T S T T S T T S T T S T T S T T S S    E  H.           E   
----------------------------------------------|---------------------|
----------------------------------------------|---------------------|
--7S--L---------------------------------------|--3--3------------3--|
------0-0-0-0-0-0-0-0-0-0-0-0-0-0-0-0-0-0-0-0-|---------------------|


  E  H.           E     E  H.           E     E  H.           E   
---------------------|---------------------|---------------------|
---------------------|---------------------|---------------------|
--2--2------------2--|--3--3------------3--|--2--2------------2--|
---------------------|---------------------|---------------------|


  E  H.           E     E  H.           E     E  H.           E   
---------------------|---------------------|---------------------|
---------------------|---------------------|---------------------|
--5--5------------5--|--3--3------------3--|--5--5------------5--|
---------------------|---------------------|---------------------|


  Q.     E  Q.     E     E  H.           E     E  H.           E   
----------------------|---------------------|---------------------|
----------------------|---------------------|---------------------|
--3------3--4------4--|--3--3------------3--|--2--2------------2--|
----------------------|---------------------|---------------------|


  E  H.           E     E  H.           E     E  H.           E   
---------------------|---------------------|---------------------|
---------------------|---------------------|---------------------|
--3--3------------3--|--2--2------------2--|--5--5------------5--|
---------------------|---------------------|---------------------|


  E  H.           E     E  H.           E     Q.     E  Q.     E   
---------------------|---------------------|----------------------|
---------------------|---------------------|----------------------|
--3--3------------3--|--5--5------------5--|--3------3--4------4--|
---------------------|---------------------|----------------------|


  E  H.           E     E  H.           E     E  H.           E   
---------------------|---------------------|---------------------|
---------------------|---------------------|---------------------|
--3--3------------3--|--2--2------------2--|--3--3------------3--|
---------------------|---------------------|---------------------|


  E  H.           E     E  H.           E     E  H.           E   
---------------------|---------------------|---------------------|
---------------------|---------------------|---------------------|
--2--2------------2--|--5--5------------5--|--3--3------------3--|
---------------------|---------------------|---------------------|


  E  H.           E     Q.     E  Q.     E     Q    S S S S S S S S S E.   
---------------------|----------------------|-----------------------------|
---------------------|----------------------|-----------------------------|
--5--5------------5--|--3------3--4------4--|--3----3-3-3-3-3-3-3-3-3-0---|
---------------------|----------------------|-----------------------------|


  Q    S S S S S S S S S E.     Q    S S S S S S S S S E.   
-----------------------------|-----------------------------|
-----------------------------|-----------------------------|
--2----2-2-2-2-2-2-2-2-2-0---|--3----3-3-3-3-3-3-3-3-3-0---|
-----------------------------|-----------------------------|


  Q    S S S S S S S S S E.     Q    S S S S S S S S S E.   
-----------------------------|-----------------------------|
-----------------------------|-----------------------------|
--2----2-2-2-2-2-2-2-2-2-0---|--5----5-5-5-5-5-5-5-5-5-2---|
-----------------------------|-----------------------------|


  Q    S S S S S S S S S E.     Q    S S S S S S S S S E.   
-----------------------------|-----------------------------|
-----------------------------|-----------------------------|
--3----3-3-3-3-3-3-3-3-3-0---|--5----5-5-5-5-5-5-5-5-5-2---|
-----------------------------|-----------------------------|


  Q    S S S S Q    S S S S    Q    S S S S S S S S S E.   
----------------------------|-----------------------------|
----------------------------|-----------------------------|
--3----3-3-3-3-4----4-4-4-4-|--3----3-3-3-3-3-3-3-3-3-0---|
----------------------------|-----------------------------|


  Q    S S S S S S S S S E.     Q    S S S S S S S S S E.   
-----------------------------|-----------------------------|
-----------------------------|-----------------------------|
--2----2-2-2-2-2-2-2-2-2-0---|--3----3-3-3-3-3-3-3-3-3-0---|
-----------------------------|-----------------------------|


  Q    S S S S S S S S S E.     Q    S S S S S S S S S E.   
-----------------------------|-----------------------------|
-----------------------------|-----------------------------|
--2----2-2-2-2-2-2-2-2-2-0---|--5----5-5-5-5-5-5-5-5-5-2---|
-----------------------------|-----------------------------|


  Q    S S S S S S S S S E.     Q    S S S S S S S S S E.   
-----------------------------|-----------------------------|
-----------------------------|-----------------------------|
--3----3-3-3-3-3-3-3-3-3-0---|--5----5-5-5-5-5-5-5-5-5-2---|
-----------------------------|-----------------------------|


  H        H           E  S S Q    H           E  S S Q    H         
--------------------|-----------------------|-----------------------|
--------------------|-----------------------|-----------------------|
--3--------4--------|-----------------------|-----------------------|
--------------------|--2--0-2---------------|--2--0-2---------------|


  E  S E  S S S S S S E  S S S    E  S E  S S S S S S E  S S S  
-------------------------------|-------------------------------|
-------------------------------|-------------------------------|
-------------------------------|-------------------------------|
--2--0-2--2-2-2-0-3-0-2--2-2-2-|--2--0-2--2-2-2-0-3-0-2--2-2-2-|


  E  S E  S S S S S S E  S S S    E  S E  S S S S S S E  S S S  
-------------------------------|-------------------------------|
-------------------------------|-------------------------------|
-------------------------------|-------------------------------|
--2--0-2--2-2-2-0-3-0-2--2-2-2-|--2--0-2--2-2-2-0-3-0-2--2-2-2-|


  E  S E  S S S S S S E  S S S    E  S E  S S S S S S E  S S S  
-------------------------------|-------------------------------|
-------------------------------|-------------------------------|
-------------------------------|-------------------------------|
--2--0-2--2-2-2-0-3-0-2--2-2-2-|--2--0-2--2-2-2-0-3-0-2--2-2-2-|


  E  S E  S S S S S S E  S S S    E  S E  S S S S S S E  S S S  
-------------------------------|-------------------------------|
-------------------------------|-------------------------------|
-------------------------------|-------------------------------|
--2--0-2--2-2-2-0-3-0-2--2-2-2-|--2--0-2--2-2-2-0-3-0-2--2-2-2-|


  S S S S E  S S S S S S E  S S    Q    S S S S H         
--------------------------------|------------------------|
--------------------------------|------------------------|
--------------------------------|------------------------|
--0-2-2-2-2--2-2-0-2-2-2-2--3-2-|--0----0-0-3-2-L--------|


  S S S S E  S S S S S S E  S S    Q    S S S S H         
--------------------------------|------------------------|
--------------------------------|------------------------|
--------------------------------|------------------------|
--0-2-2-2-2--2-2-0-2-2-2-2--3-2-|--0----0-0-3-2-L--------|


  S S S S E  S S S S S S E  S S    Q    S S S S H         
--------------------------------|------------------------|
--------------------------------|------------------------|
--------------------------------|------------------------|
--0-2-2-2-2--2-2-0-2-2-2-2--3-2-|--0----0-0-3-2-L--------|


  S S S S E  S S S S S S E  S S    Q.     S S H           W                 
--------------------------------|----------------------|-------------------|
--------------------------------|----------------------|-------------------|
--------------------------------|----------------------|-------------------|
--0-2-2-2-2--2-2-0-2-2-2-2--3-2-|--0------3-2-L--------|-------------------|


  E   S T T S T T S T T S T T S T T S T T S S  
----------------------------------------------|
----------------------------------------------|
--7S--L---------------------------------------|
------0-0-0-0-0-0-0-0-0-0-0-0-0-0-0-0-0-0-0-0-|


  S T T S S S S S S S T T S S S S S S  
--------------------------------------|
--6-6-6-6-7-7-7-6-6-------------------|
--------------------7-7-7-7-8-8-8-7-6-|
--------------------------------------|


  E   S T T S T T S T T S T T S T T S T T S S  
----------------------------------------------|
----------------------------------------------|
--7S--L---------------------------------------|
------0-0-0-0-0-0-0-0-0-0-0-0-0-0-0-0-0-0-0-0-|


  S T T S S S S S S S T T S S S S S S  
--------------------------------------|
--6-6-6-6-7-7-7-6-6-------------------|
--------------------7-7-7-7-8-8-8-7-6-|
--------------------------------------|


  E   S T T S T T S T T S T T S T T S T T S S  
----------------------------------------------|
----------------------------------------------|
--7S--L---------------------------------------|
------0-0-0-0-0-0-0-0-0-0-0-0-0-0-0-0-0-0-0-0-|


  S T T S S S S S S S T T S S S S S S  
--------------------------------------|
--6-6-6-6-7-7-7-6-6-------------------|
--------------------7-7-7-7-8-8-8-7-6-|
--------------------------------------|


  E   S T T S T T S T T S T T S T T S T T S S    E  S S E.  S S S S S S S S S  
----------------------------------------------|-------------------------------|
----------------------------------------------|-------------------------------|
--7S--L---------------------------------------|-------------------------------|
------0-0-0-0-0-0-0-0-0-0-0-0-0-0-0-0-0-0-0-0-|--0--0-0-0---0-2-3-2-0-3-2-0-0-|


  E  S S E.  S S S S S S S S S    E  S S E.  S S S S S S S S S  
-------------------------------|-------------------------------|
-------------------------------|-------------------------------|
-------------------------------|-------------------------------|
--1--1-1-1---0-2-3-2-0-3-2-0-0-|--0--0-0-0---0-2-3-2-0-3-2-0-0-|


  E  S S E.  S S S S S S S S S    E  S S E.  S S S S S S S S S  
-------------------------------|-------------------------------|
-------------------------------|-------------------------------|
-------------------------------|-------------------------------|
--1--1-1-1---0-2-3-2-0-3-2-0-0-|--0--0-0-0---0-2-3-2-0-3-2-0-0-|


  E  S S E.  S S S S S S S S S    E  S S E.  S S S S S S S S S  
-------------------------------|-------------------------------|
-------------------------------|-------------------------------|
-------------------------------|-------------------------------|
--1--1-1-1---0-2-3-2-0-3-2-0-0-|--0--0-0-0---0-2-3-2-0-3-2-0-0-|


  E  S S E.  S S S S S S S S S    E  S S E.  S S S S S S S S S  
-------------------------------|-------------------------------|
-------------------------------|-------------------------------|
-------------------------------|-------------------------------|
--1--1-1-1---0-2-3-2-0-3-2-0-0-|--0--0-0-0---0-2-3-2-0-3-2-0-0-|


  E  S S E.  S S S S S S S S S    E  S S E.  S S S S S S S S S  
-------------------------------|-------------------------------|
-------------------------------|-------------------------------|
-------------------------------|-------------------------------|
--1--1-1-1---0-2-3-2-0-3-2-0-0-|--0--0-0-0---0-2-3-2-0-3-2-0-0-|


  E  S S E.  S S S S S S S S S  
-------------------------------|
-------------------------------|
-------------------------------|
--1--1-1-1---0-2-3-2-0-3-2-0-0-|


  Q    T T T T T T T T T T T T T T T T T T T T T T T T    W                 
-------------------------------------------------------|-------------------|
-------------------------------------------------------|-------------------|
-------------------------------------------------------|-------------------|
--0----0-0-0-0-0-0-0-0-0-0-0-0-0-0-0-0-0-0-0-0-0-0-0-0-|--0----------------|


  W                   E  H.           E     W                  
-------------------|---------------------|-------------------||
-------------------|---------------------|-------------------||
-------------------|--7------------------|-------------------||
-------------------|---------------------|-------------------||




Duration Legend
---------------
W - whole
H - half
Q - quarter
E - 8th
S - 16th
T - 32nd
X - 64th
. - note dotted
|-n-|  - n-tuplets


Tablature Legend
----------------
L - tied note
x - dead note
g - grace note
(n) - ghost note
> - accentuded note
NH - natural harmonic
AH - artificial harmonic
TH - tapped harmonic
SH - semi harmonic
PH - pitch harmonic
h - hammer on
p - pull off
b - bend
br - bendRelease
pb - preBend
pbr - preBendRelease
brb - bendReleaseBend
\n/ - tremolo bar dip
\n - tremolo bar dive
-/n - tremolo bar Release up
/n\ - tremolo bar inverted dip
/n - tremolo bar return
-\n - tremolo bar Release down
S - shift slide
s - legato slide
/ -  slide into from below or out of upwards
\ -  slide into from above or out of downwards
~ - vibrato
W - wide vibrato
tr - trill
TP - tremolo picking
T - tapping
S - slap
P - pop
< - fade in
^ - brush up
v - brush down





Comments


Popular Iced Earth tabs & chords
Angels Holocaust 1 Bass Tabs
Damien 1 Bass Tabs
Damien 4 Bass Tabs
Melancholy 2 Bass Tabs
Burning Times Tabs
Divide And Devour 1 Tabs
Greenface Intro 1 Tabs
Screaming For Vengeance Tabs
Solitude Tabs
Written On The Walls 1 Tabs


Song lyrics



↑ Back to top | Tablatures and chords are parodies/interpretations of the original songs. You may use it for private study, scholarship, research or language learning purposes only
© 2014 AZChords.com Contact us | Privacy policy | DMCA | Add/correct tabs | Request tabs | Top 50 tabs