» » »

Iced Earth, Burning Times Bass tabs (ver.1)

Artists:  A B C D E F G H I J K L M N O P Q R S T U V W X Y Z # 

Burning Times Bass tabs (ver.1)

Iced Earth Tabs
 Rating:
4/5 (4 votes)
Burning Times lessons Tabs too difficult? Try these video lessons and learn fast
                Tune your bass to Drop D then tune all your strings
down half a semitone.

Riff 1
x 3
Gb||---------------------|
Db||---------------------|
Ab||---------------------|
Db||--2--2--2------------|

Tail
|--------------------------|--------------------|
|--------------------------|--------------------|
|--3--3--3--3--3--5--3--2--|--------------------|
|--------------------------|----------5--4~-----|


Riff 2
x 3
--------------------------|--------------------------|
--------------------------|--------------------------|
--------------------------|--------------------------|
--2--2--2--2--2--2--2--2--|--2--2--2--2--2--0--2--0--|


Play Tail


Verse
x 4
------------------------|------------------------|------------------------|
------------------------|------------------------|------------------------|
------------------------|------------------------|------------------------|
--2----2----2--0--2--0--|--2----2----2--0--2--0--|--2----2----2--0--2--5--|


------------------------|
------------------------|
------------------------|
----0--5--3----0--3--2--|


Then:
Riff 2
Verse
Riff 2 again under the chorus


During Solo
--------------------------|-------------------------|--------------------------|
--------------------------|-------------------------|--------------------------|
--------------------------|-------------------------|-----------------------1--|
--2--2--2--2--2--2--2--2--|--2--2--2--2--2--5--5----|--2--2--2--2--2--2--2-----|


-------------------------|--------------------------|-------------------------|
-------------------------|--------------------------|-------------------------|
-----1-----1--0----0--0--|--------------------------|-------------------------|
--2-----2----------------|--2--2--2--2--2--2--2--2--|--2--2--2--2--2--5--5----|

                                                     /----This part twice----\
--------------------------|-------------------------|-------------------------|
--------------------------|-------------------------|-------------------------|
-----------------------1--|-----1-----1--0----0--0--|--3----3--3-3-3--5----2--|
--2--2--2--2--2--2--2-----|--2-----2----------------|-------------------------|


Then:
Verse
Chorus


Outro
--------------------------|--------------------------|----------------------|
--------------------------|--------------------------|----------------------|
--------------------------|--------------------------|--3--------3--5----2--|
--2--2--2--2--2--2--2--2--|--2--2--2--2--etc,etc...--|----------------------|


----------------------|--------------------|--------||
----------------------|--------------------|--------||
--3--------3--5----2--|--------------------|--------||
----------------------|----------5--4------|---2/---||
            
Submit corrections

comments powered by Disqus
↑ Back to top | Iced Earth Bass for Burning Times. Lyrics for acoustic guitar and electric guitar. Tablatures and chords are parodies/interpretations of the original songs. You may use it for private study, scholarship, research or language learning purposes only