>
 >
Angels Holocaust 1

Angels Holocaust 1 Bass Tabs

Iced Earth - Angels Holocaust 1 chords, tabs, tablatures, lyrics

Guitar lessons | Add/correct | Request | Top 50 tabs Artists:  A B C D E F G H I J K L M N O P Q R S T U V W X Y Z 0-9

Angels Holocaust 1 Bass Tabs – Iced Earth

CD, Sheet music, Poster

Do you like Angels Holocaust 1? Share with your friends now
Bass TabsBass Tabs v2Tabs
      E  E  Q    H           E  E  Q    H           E  E  Q    H         
F#||----------------------|----------------------|----------------------|
C#||----------------------|----------------------|----------------------|
G#||----------------------|----------------------|----------------------|
D#||--0--0----------------|--0--0----------------|--0--0----------------|


  W                   E  E  Q    H           E  E  Q    H         
-------------------|----------------------|----------------------|
-------------------|----------------------|----------------------|
-------------------|----------------------|----------------------|
-------------------|--0--0----------------|--0--0----------------|


  E  E  Q    H           W                   E  E  Q    H         
----------------------|-------------------|----------------------|
----------------------|-------------------|----------------------|
----------------------|-------------------|----------------------|
--0--0----------------|-------------------|--0--0----------------|


  E  E  Q    H           E  E  Q    H           W                 
----------------------|----------------------|-------------------|
----------------------|----------------------|-------------------|
----------------------|----------------------|-------------------|
--0--0----------------|--0--0----------------|-------------------|


  E  E  Q    H           E  E  Q    H           E  E  Q    H         
----------------------|----------------------|----------------------|
----------------------|----------------------|----------------------|
----------------------|----------------------|----------------------|
--0--0----------------|--0--0----------------|--0--0----------------|


  Q    W                   Q.     Q.        E.  E.  S. S. E.     Q.     Q.      
------------------------|----------------|--------------------|----------------|
------------------------|----------------|--------------------|----------------|
------------------------|--7------7------|--7---7---7--8--7---|----------------|
------------------------|----------------|--------------------|--7------7------|


                                              |-3-|                          
  E.  E.  S. S. E.     Q.     E.  E.     Q    S S S Q.        Q.     Q.      
--------------------|-----------------|--------------------|----------------|
--------------------|-----------------|--------------------|----------------|
--------------------|--5--------------|--5----L-5-7-5------|--7------7------|
--7---7---7--8--7---|---------5---8---|--------------------|----------------|


  S. E  S S. E  S S. S.    Q.     Q.        E.  E.  S. S. E.     Q.     Q.      
------------------------|----------------|--------------------|----------------|
------------------------|----------------|--------------------|----------------|
--8--7----8--7----8--7--|--7------7------|--7---7---7--8--7---|----------------|
------------------------|----------------|--------------------|--7------7------|


                                              |-3-|                          
  E.  E.  S. S. E.     Q.     E.  E.     Q    S S S Q.        Q.     Q.      
--------------------|-----------------|--------------------|----------------|
--------------------|-----------------|--------------------|----------------|
--------------------|--5--------------|--5----L-5-7-5------|--7------7------|
--7---7---7--8--7---|---------5---8---|--------------------|----------------|


  S. E  S S. E  S S. S.    W                   W                 
------------------------|-------------------|-------------------|
------------------------|-------------------|-------------------|
--8--7----8--7----8--7--|-------------------|-------------------|
------------------------|--0----------------|--L----------------|


  W                   W                   W                 
-------------------|-------------------|-------------------|
-------------------|-------------------|-------------------|
-------------------|-------------------|--3----------------|
--L----------------|--L----------------|-------------------|


  Q.     Q.     E  E     W                   W                 
----------------------|-------------------|-------------------|
----------------------|-------------------|-------------------|
----------------------|-------------------|-------------------|
--3------2------3--2--|--0----------------|--L----------------|


  H.           E  E     H.           E  E     H.           E  E   
---------------------|---------------------|---------------------|
---------------------|--2------------------|---------------2--4--|
------------------2--|---------------0--2--|--3------------------|
--0------------L-----|---------------------|---------------------|


  Q.     Q.     Q       Q.     E  E  E  E  E     W                 
---------------------|------------------------|-------------------|
--5------4------4----|--2------4--5--4--2--0--|--2----------------|
---------------------|------------------------|-------------------|
---------------------|------------------------|-------------------|


  H.           E  E     H.           E  E     H.           E  E   
---------------------|---------------------|---------------------|
---------------------|--2------------------|---------------2--4--|
------------------2--|---------------0--2--|--3------------------|
--0------------L-----|---------------------|---------------------|


  Q.     Q.     Q       H.           E  S S    H.           E  E   
---------------------|----------------------|---------------------|
--5------4------4----|--2------------L--2-4-|--2------------L-----|
---------------------|----------------------|---------------------|
---------------------|----------------------|------------------0--|


  Q    E  Q    E  S S S S    Q    E  Q    E  S S S S  
--------------------------|--------------------------|
--------------------------|--------------------------|
--------------------------|--------------------------|
--2----0--2----2--2-2-2-2-|--2----0--2----2--2-2-2-2-|


  Q    E  Q    E  S S S S    Q    E  Q    E  S S S S  
--------------------------|--------------------------|
--------------------------|--------------------------|
----------1----1--1-1-1-1-|----------1----1--1-1-1-1-|
--0----0------------------|--0----0------------------|


  Q    E  Q    E  S S S S    Q    E  Q    E  S S S S  
--------------------------|--------------------------|
--------------------------|--------------------------|
--------------------------|--------------------------|
--2----0--2----2--2-2-2-2-|--2----0--2----2--2-2-2-2-|


  Q    E  Q    E  S S S S    Q    E  Q    E  S S S S    W                 
--------------------------|--------------------------|-------------------|
--------------------------|--------------------------|--2----------------|
----------1----1--1-1-1-1-|----------1----1--1-1-1-1-|-------------------|
--0----0------------------|--0----0------------------|--0----------------|


  W                   W                   E  Q    E  Q    E  E   
-------------------|-------------------|------------------------|
--L----------------|--L----------------|------------------------|
-------------------|-------------------|------------------------|
--L----------------|--L----------------|--1--1----3--3----3--1--|


  W                   E  Q    E  Q    E  E     W                 
-------------------|------------------------|-------------------|
-------------------|------------------------|-------------------|
-------------------|------------------------|-------------------|
--0----------------|--1--1----3--3----3--1--|--0----------------|


  E  Q    E  Q    E  E     W                   Q.     Q.     E  E   
------------------------|-------------------|----------------------|
------------------------|-------------------|--3------5------5--3--|
------------------------|-------------------|----------------------|
--1--1----3--3----3--1--|--0----------------|----------------------|


  W                   E  E  E  Q.     E  E     W                 
-------------------|------------------------|-------------------|
-------------------|--3--3-----5------5--3--|-------------------|
-------------------|------------------------|-------------------|
--0----------------|------------------------|--0----------------|


  Q.     Q.     E  E     W                   E  E  E  Q.     E  E   
----------------------|-------------------|------------------------|
--3------5------5--3--|-------------------|--3--3-----5------5--3--|
----------------------|-------------------|------------------------|
----------------------|--0----------------|------------------------|


  S T T S S S S S S S S Q.        S T T S S S S S S S S Q.      
-------------------------------|-------------------------------|
-------------------------------|-------------------------------|
--7-7-7-7-7---7---7-7---8------|--7-7-7-7-7---7---7-8-7-7------|
-------------------------------|-------------------------------|


  S T T S S S S S S S S Q.        S T T S S S S S S S S Q.      
-------------------------------|-------------------------------|
-------------------------------|-------------------------------|
--7-7-7-7-7---7---7-7---8------|--7-7-7-7-7---7---7-8-7-7------|
-------------------------------|-------------------------------|


  S T T S S S S S S S S Q.        S T T S S S S S S S S Q.      
-------------------------------|-------------------------------|
-------------------------------|-------------------------------|
--7-7-7-7-7-7-7-7-7-7-7-8------|--7-7-7-7-7-7-7-7-7-8-7-7------|
-------------------------------|-------------------------------|


  S T T S S S S S S S S Q.        S T T S S S S S S S S Q.      
-------------------------------|-------------------------------|
-------------------------------|-------------------------------|
--7-7-7-7-7-7-7-7-7-7-7-8------|--7-7-7-7-7-7-7-7-7-8-7-7------|
-------------------------------|-------------------------------|


  S T T S S S S S S S S Q.        S T T S S S S S S S S Q.      
-------------------------------|-------------------------------|
-------------------------------|-------------------------------|
--7-7-7-7-7-7-7-7-7-7-7-8------|--7-7-7-7-7-7-7-7-7-8-7-7------|
-------------------------------|-------------------------------|


  S T T S S S S S S S S Q.        S T T S S S S S S S S Q.      
-------------------------------|-------------------------------|
-------------------------------|-------------------------------|
--7-7-7-7-7-7-7-7-7-7-7-8------|--7-7-7-7-7-7-7-7-7-8-7-7------|
-------------------------------|-------------------------------|


  Q    S S S S Q    S S S S    S T T S S T T S S T T S S T T S S S S S  
----------------------------|------------------------------------------|
----------------------------|------------------------------------------|
--5----5-7-5----------------|--7-7-7-7-7-7-7-7-8-8-8-8-5-5-5-5-7-7-7-7-|
-------------5-6----6-7-6-5-|------------------------------------------|


  Q    S S S S Q    S S S S    S T T S S S S S S S S Q.      
----------------------------|-------------------------------|
----------------------------|-------------------------------|
--5----5-7-5----------------|--7-7-7-7-7-7-7-7-7-7-7-8------|
-------------5-6----6-7-6-5-|-------------------------------|


  S T T S S S S S S S S Q.        S T T S S S S S S S S Q.      
-------------------------------|-------------------------------|
-------------------------------|-------------------------------|
--7-7-7-7-7-7-7-7-7-8-7-7------|--7-7-7-7-7-7-7-7-7-7-7-8------|
-------------------------------|-------------------------------|


  S T T S S S S S S S S Q.        S T T S S S S S S S S Q.      
-------------------------------|-------------------------------|
-------------------------------|-------------------------------|
--7-7-7-7-7-7-7-7-7-8-7-7------|--7-7-7-7-7-7-7-7-7-7-7-8------|
-------------------------------|-------------------------------|


  S T T S S S S S S S S Q.        S T T S S S S S S S S Q.      
-------------------------------|-------------------------------|
-------------------------------|-------------------------------|
--7-7-7-7-7-7-7-7-7-8-7-7------|--7-7-7-7-7-7-7-7-7-7-7-8------|
-------------------------------|-------------------------------|


  S T T S S S S S S S S Q.        Q    S S S S Q    S S S S  
-------------------------------|----------------------------|
-------------------------------|----------------------------|
--7-7-7-7-7-7-7-7-7-8-7-7------|--5----5-7-5----------------|
-------------------------------|-------------5-6----6-7-6-5-|


  S T T S S T T S S T T S S T T S S S S S    Q    S S S S Q    S S S S  
------------------------------------------|----------------------------|
------------------------------------------|----------------------------|
--7-7-7-7-7-7-7-7-8-8-8-8-5-5-5-5-7-7-7-7-|--5----5-7-5----------------|
------------------------------------------|-------------5-6----6-7-6-5-|


  S S S S S S S S S S S S S S S S    Q    S S S S Q    S S S S  
----------------------------------|----------------------------|
----------------------------------|----------------------------|
--7-------------------------------|--5----5-7-5----------------|
----0-0-0-0-0-0-0-0-0-0-0-0-0-0-0-|-------------5-6----6-7-6-5-|


  S T T S S T T S S T T S S T T S S S S S  
------------------------------------------|
------------------------------------------|
--7-7-7-7-7-7-7-7-8-8-8-8-5-5-5-5-7-7-7-7-|
------------------------------------------|


  S T T S S T T S S T T S S T T S S S S S  
------------------------------------------|
------------------------------------------|
--7-7-7-7-7-7-7-7-8-8-8-8-5-5-5-5-7-7-7-7-|
------------------------------------------|


  S T T S S T T S S T T S S T T S S S S S  
------------------------------------------|
------------------------------------------|
--7-7-7-7-7-7-7-7-8-8-8-8-5-5-5-5-7-7-7-7-|
------------------------------------------|


  S T T S S T T S S T T S S T T S S S S S    W                 
------------------------------------------|-------------------|
------------------------------------------|-------------------|
--7-7-7-7-7-7-7-7-8-8-8-8-5-5-5-5-7-7-7-7-|-------------------|
------------------------------------------|--0----------------|


  W                   W                   W                   W                 
-------------------|-------------------|-------------------|-------------------|
-------------------|-------------------|-------------------|-------------------|
-------------------|-------------------|-------------------|-------------------|
--L----------------|-------------------|-------------------|--0----------------|


  H.           Q       W                   W                 
--------------------|-------------------|-------------------|
--------------------|-------------------|-------------------|
--------------------|-------------------|-------------------|
--L------------3----|--2----------------|--L----------------|


  W                   H.           Q       W                 
-------------------|--------------------|-------------------|
-------------------|--------------------|-------------------|
-------------------|--------------------|-------------------|
--0----------------|--L------------3----|--2----------------|


  W                   W                   H.           Q     
-------------------|-------------------|--------------------|
-------------------|-------------------|--------------------|
-------------------|-------------------|--------------------|
--L----------------|--0----------------|--L------------3----|


  W                   W                   S T T S E  E  S S T T S E  E  S  
-------------------|-------------------|----------------------------------|
-------------------|-------------------|----------------------------------|
-------------------|-------------------|--7-7-7-7-5--7--5-7-7-7-7-5--7----|
--2----------------|--L----------------|--------------------------------5-|


  Q    S S S Q    S S S S S    S T T S E  E  S S T T S E  E  S  
----------------------------|----------------------------------|
----------------------------|----------------------------------|
----------------------------|--7-7-7-7-5--7--5-7-7-7-7-5--7----|
--6----6-7-6-5----0-5-6-5-3-|--------------------------------5-|


  Q    S S S Q    S S S S S    S T T S E  E  S S T T S E  E  S  
----------------------------|----------------------------------|
----------------------------|----------------------------------|
----------------------------|--7-7-7-7-5--7--5-7-7-7-7-5--7----|
--6----6-7-6-5----0-5-6-5-3-|--------------------------------5-|


  Q    S S S Q    S S S S S    S T T S E  E  S S T T S E  E  S  
----------------------------|----------------------------------|
----------------------------|----------------------------------|
----------------------------|--7-7-7-7-5--7--5-7-7-7-7-5--7----|
--6----6-7-6-5----0-5-6-5-3-|--------------------------------5-|


  Q    S S S Q    S S S S S    S T T S E  E  S S T T S E  E  S  
----------------------------|----------------------------------|
----------------------------|----------------------------------|
----------------------------|--7-7-7-7-5--7--5-7-7-7-7-5--7----|
--6----6-7-6-5----0-5-6-5-3-|--------------------------------5-|


  Q    S S S Q    S S S S S    S T T S E  E  S S T T S E  E  S  
----------------------------|----------------------------------|
----------------------------|----------------------------------|
----------------------------|--7-7-7-7-5--7--5-7-7-7-7-5--7----|
--6----6-7-6-5----0-5-6-5-3-|--------------------------------5-|


  Q    S S S Q    S S S S S    S T T S E  E  S S T T S E  E  S  
----------------------------|----------------------------------|
----------------------------|----------------------------------|
----------------------------|--7-7-7-7-5--7--5-7-7-7-7-5--7----|
--6----6-7-6-5----0-5-6-5-3-|--------------------------------5-|


  Q    S S S Q    S S S S S    S T T S E  E  S S T T S E  E  S  
----------------------------|----------------------------------|
----------------------------|----------------------------------|
----------------------------|--7-7-7-7-5--7--5-7-7-7-7-5--7----|
--6----6-7-6-5----0-5-6-5-3-|--------------------------------5-|


  Q    S S S Q    S S S S S    Q    S S E  Q    S S E     W                 
----------------------------|--------------------------|-------------------|
----------------------------|--------------------------|-------------------|
----------------------------|--------------------------|-------------------|
--6----6-7-6-5----0-5-6-5-3-|--2----2-2-2--1----1-1-1--|--5----------------|


  W                   W                   W                   W                 
-------------------|-------------------|-------------------|-------------------|
-------------------|-------------------|-------------------|-------------------|
-------------------|-------------------|-------------------|-------------------|
--L----------------|-------------------|-------------------|-------------------|


  W                   W                   W                   W                 
-------------------|-------------------|-------------------|-------------------|
-------------------|-------------------|-------------------|-------------------|
-------------------|-------------------|-------------------|-------------------|
-------------------|-------------------|-------------------|-------------------|


  W                   W                   W                   W                 
-------------------|-------------------|-------------------|-------------------|
-------------------|-------------------|-------------------|-------------------|
-------------------|-------------------|-------------------|-------------------|
-------------------|-------------------|-------------------|-------------------|


  W                   W                   W                  
-------------------|-------------------|-------------------||
-------------------|-------------------|-------------------||
-------------------|-------------------|-------------------||
-------------------|-------------------|-------------------||




Duration Legend
---------------
W - whole
H - half
Q - quarter
E - 8th
S - 16th
T - 32nd
X - 64th
. - note dotted
|-n-|  - n-tuplets


Tablature Legend
----------------
L - tied note
x - dead note
g - grace note
(n) - ghost note
> - accentuded note
NH - natural harmonic
AH - artificial harmonic
TH - tapped harmonic
SH - semi harmonic
PH - pitch harmonic
h - hammer on
p - pull off
b - bend
br - bendRelease
pb - preBend
pbr - preBendRelease
brb - bendReleaseBend
\n/ - tremolo bar dip
\n - tremolo bar dive
-/n - tremolo bar Release up
/n\ - tremolo bar inverted dip
/n - tremolo bar return
-\n - tremolo bar Release down
S - shift slide
s - legato slide
/ -  slide into from below or out of upwards
\ -  slide into from above or out of downwards
~ - vibrato
W - wide vibrato
tr - trill
TP - tremolo picking
T - tapping
S - slap
P - pop
< - fade in
^ - brush up
v - brush down





Comments


Popular Iced Earth tabs & chords
Consequences Bass Tabs
Before The Vision Tabs
Dead Babies Tabs
Divide And Devour Tabs
Hold At All Costs Tabs
I Died For You Tabs
Last Laugh Tabs
Overture Tabs
The Revealing Tabs
Written On The Walls 3 Tabs


Song lyrics



↑ Back to top | Tablatures and chords are parodies/interpretations of the original songs. You may use it for private study, scholarship, research or language learning purposes only
© 2014 AZChords.com Contact us | Privacy policy | DMCA | Add/correct tabs | Request tabs | Top 50 tabs