>
 >
1776 2

1776 2 Guitar Tabs

Iced Earth - 1776 2 chords, tabs, tablatures, lyrics

Guitar lessons | Add/correct | Request | Top 50 tabs Artists:  A B C D E F G H I J K L M N O P Q R S T U V W X Y Z 0-9

1776 2 Guitar Tabs – Iced Earth

CD, Sheet music, Poster

Do you like 1776 2? Share with your friends now
Bass TabsBass Tabs v2Bass Tabs v3Drum TabsTabsTabs v2Tabs v3
1776
As recorded by Iced Earth
(From the 1998 Album SOMETHING WICKED THIS WAY COMES)


 Intro
  Q=128
          Eb5        Eb5  F#5 F5 F#5F5 Eb5C#5
 4/4
  Gtr I
  PM----|    PM----|
|-----------------------|--------------------|
|-----------------------|--------------------|
|-----------------------|--------------------|
|---------9----------9--|-12--11-12-11-9--7--|
|---------7----------7--|-10---9-10--9-7--5--|
|-0-0-0-0----0-0-0-0----|--------------------|
|
| Gtr II
| PM----|    PM----|
|-----------------------|--------------------|
|-----------------------|--------------------|
|-----------------------|--------------------|
|---------9----------9--|-12--11-12-11-9--7--|
|---------7----------7--|-10---9-10--9-7--5--|
|-0-0-0-0----0-0-0-0----|--------------------|


          Eb5        Eb5
  PM----|    PM----|          PM---|
|-----------------------|-------------------|
|-----------------------|-------------------|
|-----------------------|-------------------|
|---------9----------9--|-------------------|
|---------7----------7--|-10--9-10-9-7--5---|
|-0-0-0-0----0-0-0-0----|-------------------|
|
| PM----|    PM----|          PM---|
|-----------------------|-------------------|
|-----------------------|-------------------|
|-----------------------|-------------------|
|---------9----------9--|--9--7--9-7-5--4---|
|---------7----------7--|-------------------|
|-0-0-0-0----0-0-0-0----|-------------------|


  $
          Eb5        Eb5                     B5 Bb5F#5F5
  PM----|    PM----|
|-----------------------|------------------|--------------|
|-----------------------|------------------|--------------|
|-----------------------|------------------|--------------|
|---------9----------9--|------------------|-5--4---------|
|---------7----------7--|-10--9-10-9-7--5--|-3--2--5--4---|
|-0-0-0-0----0-0-0-0----|------------------|-------3--2---|
|
| PM----|    PM----|
|-----------------------|------------------|--------------|
|-----------------------|------------------|--------------|
|-----------------------|------------------|--------------|
|---------9----------9--|--9--7--9-7-5--4--|-5--4---------|
|---------7----------7--|------------------|-3--2--5--4---|
|-0-0-0-0----0-0-0-0----|------------------|-------3--2---|


 Verse
          Eb5        Eb5
  PM----|    PM----|          PM---|
|-----------------------|------------------|
|-----------------------|------------------|
|-----------------------|------------------|
|---------9----------9--|------------------|
|---------7----------7--|-10--9-10-9-7--5--|
|-0-0-0-0----0-0-0-0----|------------------|
|
| PM----|    PM----|          PM---|
|-----------------------|------------------|
|-----------------------|------------------|
|-----------------------|------------------|
|---------9----------9--|--9--7--9-7-5--4--|
|---------7----------7--|------------------|
|-0-0-0-0----0-0-0-0----|------------------|


          Eb5        Eb5
  PM----|    PM----|          PM---|
|-----------------------|--------------------|
|-----------------------|--------------------|
|-----------------------|--------------------|
|---------9----------9--|--------------------|
|---------7----------7--|-10--9-10-9-7--5----|
|-0-0-0-0----0-0-0-0----|--------------------|
|
| PM----|    PM----|          PM---|
|-----------------------|--------------------|
|-----------------------|--------------------|
|-----------------------|--------------------|
|---------9----------9--|--9--7--9-7-5--4----|
|---------7----------7--|--------------------|
|-0-0-0-0----0-0-0-0----|--------------------|


          Eb5        Eb5                     B5 Bb5F#5F5
  PM----|    PM----|          PM---|
|-----------------------|------------------|--------------|
|-----------------------|------------------|--------------|
|-----------------------|------------------|--------------|
|---------9----------9--|------------------|-5--4---------|
|---------7----------7--|-10--9-10-9-7--5--|-3--2--5--4---|
|-0-0-0-0----0-0-0-0----|------------------|-------3--2---|
|
| PM----|    PM----|          PM---|
|-----------------------|------------------|--------------|
|-----------------------|------------------|--------------|
|-----------------------|------------------|--------------|
|---------9----------9--|--9--7--9-7-5--4--|-5--4---------|
|---------7----------7--|------------------|-3--2--5--4---|
|-0-0-0-0----0-0-0-0----|------------------|-------3--2---|


 Bridge
  PM------------------------------------------------------|
|-----------------------------|-----------------------------|
|-----------------------------|-----------------------------|
|-----------------------------|-----------------------------|
|-----------------------------|-----------------------------|
|-----------------------------|-----------------------------|
|-0-0-0-0-0-0-0-0-0-0-0-0-0-0-|-0-0-0-0-0-0-0-0-0-0-0-0-0-0-|


   Chorus
            Eb5        Eb5          Eb5
    Gtr I
    PM----|    PM----|      PM----|    PM------------|
||------------------------|----------------------------|
||o-----------------------|----------------------------|
||------------------------|----------------------------|
||----------9----------9--|---------9------------------|
||o---------7----------7--|---------7--7-7-7-7-5-5-5-5-|
||--0-0-0-0----0-0-0-0----|-0-0-0-0--------------------|
|
|   Gtr II
||------------------------|----------------------------|
||o-----------------------|----------------------------|
||------------------------|----------------------------|
||--9----------7----------|-5----------7-------4-------|
||o-----------------------|----------------------------|
||------------------------|----------------------------|


                                      To Coda
  B5            B5           B5         B5 C#5
        PM----|    PM----|      PM----|
                                                4x
|--------------------------|--------------------||
|--------------------------|-------------------o||
|--------------------------|--------------------||
|-5-------------5----------|-5----------5--7----||
|-3-----3-3-3-3-3--3-3-3-3-|-3--3-3-3-3-3--5---o||
|--------------------------|--------------------||
|
|                                               4x
|--------------------------|--------------------||
|--------------------------|-------------------o||
|--------------------------|--------------------||
|-4h5p4------------4-------|--------------------||
|-------7------------7---5-|-7-----------------o||
|--------------------------|--------------------||


 Interlude
  Eb5           Eb5 Bb                   Bb
|-----------------|-------------------------------|
|-----------------|-------------------------------|
|-----------------|-------------------------------|
|--9--------(9)-9-|--1----------------(1)-1-------|
|--7--------(7)-7-|--2----------------(2)-2-------|
|-----------------|-------------------------------|
|
|-----------------|-------------------------------|
|-----------17----|-16--17s=20--19h20p19h20p19h20-|
|-------16--------|-------------------------------|
|-14--------------|-------------------------------|
|-----------------|-------------------------------|
|-----------------|-------------------------------|


  C#5                 C#5 G#                   G#
|-----------------------|-------------------------|
|-----------------------|-------------------------|
|-----------------------|-------------------------|
|--7--------------(7)-7-|-------------------------|
|--5--------------(5)-5-|--4---------------(4)-4--|
|-----------------------|--5---------------(5)-5--|
|
|-----------------------|-17--15--15h17p15-14-----|
|-19s=17-(17)-17--------|-------------------------|
|-----------------------|-------------------------|
|-----------------------|-------------------------|
|-----------------------|-------------------------|
|-----------------------|-------------------------|


  B5             B5     F#5         F#5  G#5           G#5 Bb5             Bb5
|---------------------|----------------|-----------------|-------------------|
|---------------------|----------------|-----------------|-------------------|
|---------------------|----------------|-----------------|-------------------|
|--5---------(5)-5----|----------------|-----------------|-------------------|
|--3---------(3)-3----|--5------(5)--5-|--7--------(7)-7-|--9----------(9)-9-|
|---------------------|--3------(3)--3-|--5--------(5)-5-|--7----------(7)-7-|
|
|---------------------|----------------|-----------------|-17----------------|
|-15------15-20----20-|-20----------20-|-19----20--------|-----20--19--19----|
|---------------------|----------------|-----------------|-------------------|
|---------------------|----------------|-----------------|-------------------|
|---------------------|----------------|-----------------|-------------------|
|---------------------|----------------|-----------------|-------------------|


  Eb5            Eb5      Bb                   Bb
|-----------------------|-------------------------|
|-----------------------|-------------------------|
|-----------------------|-------------------------|
|--9--------------(9)-9-|--1---------------(1)--1-|
|--7--------------(7)-7-|--2---------------(2)--2-|
|-----------------------|-------------------------|
|
|-----------------------|-17---------17-----------|
|-19s=17-(17)-17--------|-----20--20----20-19-----|
|-----------------------|-------------------------|
|-----------------------|-------------------------|
|-----------------------|-------------------------|
|-----------------------|-------------------------|


  C#5            C#5      G#                 G#
|-----------------------|-----------------------|
|-----------------------|-----------------------|
|-----------------------|-----------------------|
|--7--------------(7)-7-|-----------------------|
|--5--------------(5)-5-|--4-------------(4)--4-|
|-----------------------|--5-------------(5)--5-|
|
|-----------------------|-----------------------|
|-19s=15-(15)-15--------|-13----13-15-13-12-----|
|-----------------------|-----------------------|
|-----------------------|-----------------------|
|-----------------------|-----------------------|
|-----------------------|-----------------------|


  B5             B5      F#5           F#5
|----------------------|------------------|
|----------------------|------------------|
|----------------------|------------------|
|--9------(9)-----9----|--1--------(1)--1-|
|--7------(7)-----7----|--2--------(2)--2-|
|----------------------|------------------|
|
|----------------------|------------------|
|-12------12--20----20-|-20--------20-----|
|----------------------|-----16-----------|
|----------------------|------------------|
|----------------------|------------------|
|----------------------|------------------|


  G#5             G#5  Bb5                              Bb5
|--------------------|----------------------------------------|
|--------------------|----------------------------------------|
|--------------------|----------------------------------------|
|--7----------(7)--7-|----------------------------------------|
|--5----------(5)--5-|--4------------------------(4)-----4----|
|--------------------|--5------------------------(5)-----5----|
|
|--------------------|-17--15--15h17p15h17p15h17-14--15----14-|
|-19--17--19--20-----|----------------------------------------|
|--------------------|----------------------------------------|
|--------------------|----------------------------------------|
|--------------------|----------------------------------------|
|--------------------|----------------------------------------|


 Verse
           Eb5        Eb5  F#5 F5 F#5F5 Eb5C#5
   PM----|    PM----|
|------------------------|--------------------|
|------------------------|--------------------|
|------------------------|--------------------|
|----------9----------9--|-12--11-12-11-9--7--|
|----------7----------7--|-10---9-10--9-7--5--|
|--0-0-0-0----0-0-0-0----|--------------------|
|
|  ~~
|-12---------------------|--------------------|
|------------------------|--------------------|
|------------------------|--------------------|
|------------------------|-12--11-12-11-9--7--|
|------------------------|-10---9-10--9-7--5--|
|------------------------|--------------------|


                              D.S. al Coda
          Eb5        Eb5
  PM----|    PM----|
|-----------------------|--------------------|
|-----------------------|--------------------|
|-----------------------|--------------------|
|---------9----------9--|--------------------|
|---------7----------7--|-10--9-10-9-7--5----|
|-0-0-0-0----0-0-0-0----|--------------------|
|
| PM----|    PM----|
|-----------------------|--------------------|
|-----------------------|--------------------|
|-----------------------|--------------------|
|---------9----------9--|--9--7--9-7-5--4----|
|---------7----------7--|--------------------|
|-0-0-0-0----0-0-0-0----|--------------------|


 Guitar Solo
  &
  Eb5                     Eb5 Bb                      Bb
  Gtrs I, II
|----------|----------------|----------|----------------|
|----------|----------------|----------|----------------|
|----------|----------------|----------|----------------|
|-9--------|-(9)------(9)-9-|-1--------|-(1)------(1)-1-|
|-7--------|-(7)------(7)-7-|-2--------|-(2)------(2)-2-|
|----------|----------------|----------|----------------|


  C#5                     C#5 G#                      G#
|----------|----------------|----------|----------------|
|----------|----------------|----------|----------------|
|----------|----------------|----------|----------------|
|-7--------|-(7)------(7)-7-|----------|----------------|
|-5--------|-(5)------(5)-5-|-4--------|-(4)------(4)-4-|
|----------|----------------|-5--------|-(5)------(5)-5-|


  B5                      B5  F#5                     F#5
|----------|----------------|----------|----------------|
|----------|----------------|----------|----------------|
|----------|----------------|----------|----------------|
|-5--------|-(5)------(5)-5-|----------|----------------|
|-3--------|-(3)------(3)-3-|-5--------|-(5)------(5)-5-|
|----------|----------------|-3--------|-(3)------(3)-3-|


  G#5                     G#5 Bb5                     Bb5
|----------|----------------|----------|----------------|
|----------|----------------|----------|----------------|
|----------|----------------|----------|----------------|
|----------|----------------|----------|----------------|
|-7--------|-(7)------(7)-7-|-9--------|-(9)------(9)-9-|
|-5--------|-(5)------(5)-5-|-7--------|-(7)------(7)-7-|


          Eb5        Eb5
  Gtr I
  PM----|    PM----|          PM---|
|-----------------------|--------------------|
|-----------------------|--------------------|
|-----------------------|--------------------|
|---------9----------9--|--------------------|
|---------7----------7--|-10--9-10-9--7------|
|-0-0-0-0----0-0-0-0----|----------------10--|
|
| Gtr II
| PM----|    PM----|          PM---|
|-----------------------|--------------------|
|-----------------------|--------------------|
|-----------------------|--------------------|
|---------9----------9--|--9--7--9-7---------|
|---------7----------7--|------------10---9--|
|-0-0-0-0----0-0-0-0----|--------------------|


          Eb5        Eb5
  PM----|    PM----|          PM---|
|-----------------------|----------------------|
|-----------------------|----------------------|
|-----------------------|----------------------|
|---------9----------9--|----------------------|
|---------7----------7--|-10--9-10-9--7--------|
|-0-0-0-0----0-0-0-0----|----------------10----|
|
| PM----|    PM----|          PM---|
|-----------------------|----------------------|
|-----------------------|----------------------|
|-----------------------|----------------------|
|---------9----------9--|--9--7--9-7-----------|
|---------7----------7--|------------10---9----|
|-0-0-0-0----0-0-0-0----|----------------------|


                                     Eb5   Eb5
  PM----|    PM----|          PM---|
|-----------------------|-------------------|---------------|
|-----------------------|-------------------|---------------|
|-----------------------|-------------------|---------------|
|---------9----------9--|-------------------|-5--4----------|
|---------7----------7--|-10--9-10-9--7--5--|-3--2--5--4----|
|-0-0-0-0----0-0-0-0----|-------------------|-------3--2----|
|
| PM----|    PM----|          PM---|
|-----------------------|-------------------|---------------|
|-----------------------|-------------------|---------------|
|-----------------------|-------------------|---------------|
|---------9----------9--|--9--7--9-7--------|-5--4----------|
|---------7----------7--|------------10--9--|-3--2--5--4----|
|-0-0-0-0----0-0-0-0----|-------------------|-------3--2----|


  B5    Bb5      F#5   F5                Eb5Eb5
  PM----|    PM----|          PM---|
|-----------------------|--------------------|
|-----------------------|--------------------|
|-----------------------|--------------------|
|---------9----------9--|--------------------|
|---------7----------7--|-10--9-10-9--7------|
|-0-0-0-0----0-0-0-0----|----------------10--|
|
| PM----|    PM----|          PM---|
|-----------------------|--------------------|
|-----------------------|--------------------|
|-----------------------|--------------------|
|---------9----------9--|--9--7--9-7---------|
|---------7----------7--|------------10---9--|
|-0-0-0-0----0-0-0-0----|--------------------|


  PM----|    PM----|          PM---|
|-----------------------|----------------------|
|-----------------------|----------------------|
|-----------------------|----------------------|
|---------9----------9--|----------------------|
|---------7----------7--|-10--9-10-9--7--------|
|-0-0-0-0----0-0-0-0----|----------------10----|
|
| PM----|    PM----|          PM---|
|-----------------------|----------------------|
|-----------------------|----------------------|
|-----------------------|----------------------|
|---------9----------9--|--9--7--9-7-----------|
|---------7----------7--|------------10---9----|
|-0-0-0-0----0-0-0-0----|----------------------|


          Eb5        Eb5                                 EEb5
  PM----|    PM----|          PM---|
|-----------------------|-------------------|-----------------|
|-----------------------|-------------------|-----------------|
|-----------------------|-------------------|-----------------|
|---------9----------9--|-------------------|-5--4------------|
|---------7----------7--|-10--9-10-9--7--5--|-3--2--5--4------|
|-0-0-0-0----0-0-0-0----|-------------------|-------3--2------|
|
| PM----|    PM----|          PM---|
|-----------------------|-------------------|-----------------|
|-----------------------|-------------------|-----------------|
|-----------------------|-------------------|-----------------|
|---------9----------9--|--9--7--9-7--------|-5--4------------|
|---------7----------7--|------------10--9--|-3--2--5--4------|
|-0-0-0-0----0-0-0-0----|-------------------|-------3--2------|


  Eb5F5
|--------------|--------*|
|--------------|--------*|
|--------------|--------*|
|--------------|--------*|
|-----2--------|-(2)----*|
|-----0--------|-(0)----*|





Comments


Popular Iced Earth tabs & chords
Burning Oasis Bass Tabs
Damien 4 Bass Tabs
Depths Of Hell Bass Tabs
Prophecy Bass Tabs
Melancholy Drum Tabs
177 Tabs
Blessed Are You 1 Tabs
Damien Tabs
Damien 1 Tabs
Greenface Tabs


Song lyrics



↑ Back to top | Tablatures and chords are parodies/interpretations of the original songs. You may use it for private study, scholarship, research or language learning purposes only
© 2014 AZChords.com Contact us | Privacy policy | DMCA | Add/correct tabs | Request tabs | Top 50 tabs