» » »

Ice Cube, It Was A Good Day Tabs (ver.1)

Artists:  A B C D E F G H I J K L M N O P Q R S T U V W X Y Z # 

It Was A Good Day Tabs (ver.1)

Ice Cube Tabs
 Rating:
4/5 (12 votes)
It Was A Good Day lessons Tabs too difficult? Try these video lessons and learn fast
                -------------------------------------------------------------------------------
                             SONG NAME - Band Name
-------------------------------------------------------------------------------

Tuning: e B G D A E


e|--------------------------------------------------------------------------|
B|-8--------8------8-----11^13-11-10^11-10----------11-11-11-10-------------|
G|-7--------7------7-----------------------12-------10-10-10-10-------------|
D|-8--------8------8--------------------------------12-12-12-10-------------|
A|-6--------6------------10--------------------10---10-10-10-8--------------|
E|-----6---------6----------------10----------------------------------------|
            
Submit corrections

comments powered by Disqus
↑ Back to top | Ice Cube Tabs for It Was A Good Day. Lyrics for acoustic guitar and electric guitar. Tablatures and chords are parodies/interpretations of the original songs. You may use it for private study, scholarship, research or language learning purposes only