» » »

Ice Cube, Go To Church Tabs (ver.1)

Artists:  A B C D E F G H I J K L M N O P Q R S T U V W X Y Z # 

Go To Church Tabs (ver.1)

Ice Cube Tabs
Rating:
0/5 (0 votes)
Go To Church lessons Tabs too difficult? Try these video lessons and learn fast
                -------------------------------------------------------------------------------
-------------------------------------------------------------------------------

Tuning:eBGDAE

After Snoop Dogg sais" Nigga you need to stop snitchin, all dat yip-yappin & jaw-jackin, 
if you scared go to church, you knew da job was dangerous when you took it." Play this 
little intro part once


e|-0~~~~~~~~7~~~~~~~~6~~~~~~~~~5~~~~~~~~~
B|---------------------------------------|
G|---------------------------------------|
D|---------------------------------------|
A|---------------------------------------|
E|---------------------------------------|

As soon as Ice Cube starts singing the first verse"Yo if you f**ked up, put yo cups 
play

Main Verse:

e|-0--0-2-3-0---0-2-3-0---|
B|------------------------|
G|------------------------|
D|------------------------|
A|------------------------|
E|------------------------|

e|-3--3-5-7-3---3-5-7-3---|
B|------------------------|
G|------------------------|
D|------------------------|
A|------------------------|
E|------------------------|

e|-2--2-4-6-2---2-4-6-2---|
B|------------------------|
G|------------------------|
D|------------------------|
A|------------------------|
E|------------------------|

e|-1--1-3-5-1---1-3-5-1---|
B|------------------------|
G|------------------------|
D|------------------------|
A|------------------------|
E|------------------------|

Repeat the main verse through the whole song. Its song is kinda fast so it may take some 
but its an easy, bangin riff once you pick it up. Enjoy!!!


| /  slide up
| \  slide down
| h  hammer-on
| p  pull-off
| ~  vibrato
| +  harmonic
| x  Mute note
===========================
            
Submit corrections

comments powered by Disqus
↑ Back to top | Ice Cube Tabs for Go To Church. Lyrics for acoustic guitar and electric guitar. Tablatures and chords are parodies/interpretations of the original songs. You may use it for private study, scholarship, research or language learning purposes only