» » »

Spike Island Tabs (ver.1)

Artists:  A B C D E F G H I J K L M N O P Q R S T U V W X Y Z # 

Spike Island Tabs (ver.1)

Icarus Line
Rating:
0/5 (0 votes)

Hard to play? Try these video lessons and learn fast.
                I didnt tab this,the guitarist from TIL did
buddy_jesus

Tuning - Standard

"whew, what a chore! i haven't seen so much tab since i was taking lessons w/ john
i may have also missed a few notes in there, but pls. take note of my positioning on the
it's a much sweeter spot than the fan transcription (no offense to whoever u r, the
are in the right key at least) and it allows for all the bluesy bending/wanking notes to
also, in the interest of space, i changed from writing 12+.5 bend every time to just
which means strike 12 fret, then bend half step, or just do lots of sustained legato or
they call it, and don't forget to have fun!"

- Alvin DeGuzman


E|-------------------------------------------------------------|
B|-------------------------------------------------------------|
G|--------------------10-12+bend.5-stp---bend-12-10------------|
D|--------10-12---------------------------------------------12-|
A|----/12------------------------------------------------------|
E|-------------------------------------------------------------|


E|-------------------------------------------------------------|
B|-----------------------------10---------------------13-10----|
G|--10----12+bend.5-stp------12+bend.5-stp----------12.5-------|
D|-------------------------------------------------------------|
A|-------------------------------------------------------------|
E|-------------------------------------------------------------|


E|--10-------------------13-10-------------------10-----------------|
B|------10-------13-10---------10-10-10-13-10-----------------------|
G|---------12.5-------------------------------------10-12.5-10------|
D|----------------------------------------------------------------12|
A|------------------------------------------------------------------|
E|------------------------------------------------------------------|


E|------------------------------------------------------------------|
B|------------------------------------------------------------------|
G|-----------------10---------------------------------------------10|
D|---------10-12----12-12-10-8-7-8-10-12---------10-12--------------|
A|--10-12---------------------------------------10-12---------------|
E|------------------------------------------------------------------|


E|-------------------------------------------------------------|
B|-----------------13------------------------------------------|
G|------10-12.5-----12.5-10------------------------------------|
D|--12--------------------------12-----------------------------|
A|-------------------------------------------------------------|
E|-------------------------------------------------------------|
            
Hard to play? Try these video lessons and learn fast. | Correct




comments powered by Disqus
↑ Back to top | Tablatures and chords are parodies/interpretations of the original songs. You may use it for private study, scholarship, research or language learning purposes only