>
 >
Rape Of The Holy Mother

Rape Of The Holy Mother Guitar Tabs

Icarus Line - Rape Of The Holy Mother chords, tabs, tablatures, lyrics

Guitar lessons | Add/correct | Request | Top 50 tabs Artists:  A B C D E F G H I J K L M N O P Q R S T U V W X Y Z 0-9

Rape Of The Holy Mother Guitar Tabs – Icarus Line

CD, Sheet music, Poster

Do you like Rape Of The Holy Mother? Share with your friends now
Tabs
Thanks to James for these tabs. 

Tuning - Standard 

x - Left hand mute 
w - Bend down with whammy bar 


Intro (parts in [] only 1 guitar)
E|---------------------------------------------|
B|---------------------------------------------|
G|---------------------------------------------|
D|---4-4-4-4-[8-8-8-7]-------------------------|
A|---4-4-4-4-[8-8-8-7]-------------------------|
E|---2-2-2-2-[6-6-6-5]-------------------------|




Part at .02 seconds (both guitars) 
E|---------------------------------------------|
B|---------------------------------------------|
G|-----------------------9-9-------------------|
D|---8-8-8-8-6-6-6-6-8-8-9-9-6-6-6-6-----------|
A|---8-8-8-8-6-6-6-6-8-8-7-7-6-6-6-6-----------|
E|---6-6-6-6-3-3-3-3-6-6-----3-3-3-3-----------|




Part at .16 

E|---------------------------------------------|
B|---------------------------------------------|
G|-5-4-3---------------------------------------|
D|-5-4-3---------------------------------------|
A|-3-2-1---------------------------------------|
E|---------------------------------------------|




Part at .17 (play 4 times)

E|---------------------------------------------|
B|---------------------------------------------|
G|-x-x-x-x-x-x-x-x------x-x-x-x-x-x-x-x--------|
D|-x-x-x-x-x-x-x-x-8-10-x-x-x-x-x-x-x-x-4-6----|
A|-x-x-x-x-x-x-x-x-8-10-x-x-x-x-x-x-x-x-4-6----|
E|-x-x-x-x-x-x-x-x-6-8--x-x-x-x-x-x-x-x-2-4----|



Part at .30 

E|---------------------------------------------|
B|---------------------------------------------|
G|---------------------------------------------|
D|--4-6-4-6-4-6-4-6-5--------------------------|
A|--4-6-4-6-4-6-4-6-5--------------------------|
E|--2-4-2-4-2-4-2-4-3--------------------------|



Then feedback/noise until .43

(With whammy bar the 5 goes down to 3, the 3 goes down to a 2, and the 2 just sort of wobbles)

E|---------------------------------------------|
B|---------------------------------------------|
G|---------------------------------------4-----|
D|---------------------------------------2-----|
A|-----5w-------3w------2w------2--------2-----|
E|-2-3-----2-3-----2-3------2-3---3-2-3--0-----|



Part at 1.12 (Guitar 1)

E|---------------------------------------------|
B|---------------------------------------------|
G|---------------------------------------------|
D|-2-2-2---------------------------------------|
A|-2-2-2---------------------------------------|
E|-0-0-0---------------------------------------|

^Mute first two chords but let the third ring 


For this part guitar two is the same, except every other time it plays this:

E|---------------------------------------------|
B|---------------------------------------------|
G|-----4---------------------------------------|
D|-2-2-2---------------------------------------|
A|-2-2-2---------------------------------------|
E|-0-0-0---------------------------------------|



Then at 1.24 the guitar in the left channel starts playing this: 

E|---------------------------------------------|
B|---------------------------------------------|
G|---------------------------------------------|
D|-2--4-5--2--4-5------------------------------|
A|-2--2-2--2--2-2------------------------------|
E|-0--0-0--0--0-0------------------------------|



At 1.35 the last chord is played

E|---------------------------------------------|
B|---------------------------------------------|
G|---------------------------------------------|
D|-2-------------------------------------------|
A|-2-------------------------------------------|
E|-0-------------------------------------------|





Comments


Popular Icarus Line tabs & chords
Feed A Cat To Your Cobra Bass Tabs
Angelfuck Cover Tabs
Caviar Tabs
Feed A Cat To Your Cobra Tabs
Feed A Cat To Your Cobra 1 Tabs
Hit It And Quit It Cover Tabs
Spike Island Tabs


Song lyrics



↑ Back to top | Tablatures and chords are parodies/interpretations of the original songs. You may use it for private study, scholarship, research or language learning purposes only
© 2014 AZChords.com Contact us | Privacy policy | DMCA | Add/correct tabs | Request tabs | Top 50 tabs