» » »

Hit It And Quit It Cover Tabs (ver.1)

Artists:  A B C D E F G H I J K L M N O P Q R S T U V W X Y Z # 

Hit It And Quit It Cover Tabs (ver.1)

Icarus Line
Rating:
0/5 (0 votes)

Hard to play? Try these video lessons and learn fast.
                Hit It And Quit It
(Funkadelic cover) 

Tuning - Standard 

h - Hammer on
p - Pull off
~ - Vibrato
b – Bend up
x - Mute string
. - Palm mute
/ - Slide up
\ - Slide down 


Main Riff 
E|----------------------------|
B|----------------------------|
G|----------------------------|
D|----------2-5-2---2p0-------|
A|------2-5-------5-----------|
E|(12/)-----------------3-0~~-| 


E|------------------------------|
B|------------------------------|
G|--------------2---------------|
D|--------2-5-2---5p4p2p0-------|
A|----2-5-----------------------|
E|12/---------------------3-0~~-| 


E|-----------------------------------------|
B|-----------------------------------------|
G|-----------------------------------------|
D|--------2-5-----2-5-----2-5-2---2p0------|
A|----2-5-----2-5-----2-5-------5----------|
E|12/---------------------------------3-0~~| 



Chords 
E|-0~~-----3~~----5~~-|
B|-2~~-----5~~----7~~-|
G|-2~~-----5~~----7~~-|
D|-2~~-----5~~----7~~-|
A|-0~~-----3~~----5~~-|
E|--------------------| 



Solo 
(Keep playing main riff but play an octave higher) 
E|--------------------------|
B|--------5-8-5---5p3-------|
G|----4-7-------7-----0-----|
D|----------------------2~~-|
A|--------------------------|
E|12/-----------------------| 


E|--------------5---------------|
B|--------5-8-5---8p7p5p3-------|
G|----4-7-----------------0-----|
D|--------------------------2~~-|
A|------------------------------|
E|12/---------------------------| 


E|------------------------------------------|
B|--------5-8-----5-8-----5-8-5---5p3-------|
G|----4-7-----4-7-----4-7-------7-----0-----|
D|--------------------------------------2~~-|
A|------------------------------------------|
E|12/---------------------------------------| 
            
Hard to play? Try these video lessons and learn fast. | Correct




comments powered by Disqus
↑ Back to top | Tablatures and chords are parodies/interpretations of the original songs. You may use it for private study, scholarship, research or language learning purposes only