» » »

I Can Make A Mess Like Nobodys Business, You're Not So Good At Talking Anymore Tabs (ver.1)

Artists:  A B C D E F G H I J K L M N O P Q R S T U V W X Y Z # 

You're Not So Good At Talking Anymore Tabs (ver.1)

I Can Make A Mess Like Nobodys Business Tabs
 Rating:
4/5 (4 votes)
You're Not So Good At Talking Anymore lessons Tabs too difficult? Try these video lessons and learn fast
1
                -------------------------------------------------------------------------------
                  You're Not So Good At Talking Anymore -
                 I Can Make A Mess Like Nobody's Business
-------------------------------------------------------------------------------


Great song from Ace Enders' (of The Early November) side project.


Tuning- Half A Step Down (Flat)


Chords Used-

   G      Cadd9                                          
|-----|  |-----|    |-----|
|--3--|  |--3--|    |-----|
|--0--|  |--0--| or |--7--|
|--0--|  |--x--|    |--0--|
|--x--|  |--3--|    |--x--|
|--3--|  |-----|    |--8--|


Intro-
e|---------------------|       
B|---------------------|       
G|4-2--0---------------|       
D|-------4--2-0--------|x12    
A|---------------3-2---|       
E|---------------------|       
So calm down, and come out. I was heading down a road...
Your head turned left and I follow.

e|------------------|      e|------------------|
B|------------------|      B|------------------|
G|--4p0-4p0-4p2p0---|      G|0~---0h2p0--------|
D|0-----------------|x3    D|---0-------0h2h4--|
A|------------------|      A|------------------|
E|------------------|      E|------------------|
You were my compass then. Anywhere you go, I'm in.



Pre-Chorus-
e|---------------------------------------------------------------------------|
B|----------------------------------------------------10---------------------|
G|-----------4-------5--------7---------------9-------11-----------12----0---|
D|-----------0-------0--------0---------------0-------0------------0-----0---|
A|-----------x-------x--------x---------------x-------x------------x-----x---|
E|-----------3-------5--------7---------------8-------10-----------12----3---|
  You were ready, shaking, starved for this feeling you lost, you lost...



Chorus-
G
  I don't know where we went wrong. Why would you act like you don't know?
Cadd9
  Swaying to the rhythm of our own song. So don't let me go...
G
  Feels like a brick's stuck in my throat holding everything my heart wants.
Cadd9
  Finding love in an old song. So don't let me go...


(Chorus lead)
e|-----10-12p10---------10-12p10---------10~---|
B|--12----------12---12----------12---12-12~---|
G|0----------------0----------------0----0~----|
D|---------------------------------------------|
A|---------------------------------------------|
E|---------------------------------------------|



Verse-
e|---------------------|
B|---------------------|
G|4-2--0---------------|
D|-------4--2-0--------|x16
A|---------------3-2---|
E|---------------------|
I'm ready, waiting on my ending.

I'm just a boy in the snow.
I'm feeling sweats right through my clothes.


e|------------------|      e|------------------|
B|------------------|      B|------------------|
G|--4p0-4p0-4p2p0---|      G|0~---0h2p0--------|
D|0-----------------|x3    D|---0-------0h2h4--|
A|------------------|      A|------------------|
E|------------------|      E|------------------|
You have an honest grin. That we would hide out and in.



Pre-Chorus-
e|---------------------------------------------------------------------------|
B|----------------------------------------------------10---------------------|
G|-----------4-------5--------7---------------9-------11-----------12----0---|
D|-----------0-------0--------0---------------0-------0------------0-----0---|
A|-----------x-------x--------x---------------x-------x------------x-----x---|
E|-----------3-------5--------7---------------8-------10-----------12----3---|
  You were ready, shaking, starved for this feeling you lost, you lost...



Chorus-
G
  I don't know where we went wrong. Why would you act like you don't know?
Cadd9
  Swaying to the rhythm of our own song. So don't let me go...
G
  Feels like a brick's stuck in my throat holding everything my heart wants.
Cadd9
  Finding love in an old song. So don't let me go...


(Chorus lead)
e|-----10-12p10---------10-12p10---------10~---|
B|--12----------12---12----------12---12-12~---|
G|0----------------0----------------0----0~----|
D|---------------------------------------------|
A|---------------------------------------------|
E|---------------------------------------------|



Bridge-
e|----------|
B|----------|
G|4-2-0-----|
D|------0---| (Repeat a lot)
A|----------|
E|----------|
So calm down, come out.
G                        Cadd9
I'm ready, waiting on my ending.



Outro-
G
  I don't know where we went wrong. Why would you act like you don't know?
Cadd9
  Swaying to the rhythm of our own song. So don't let me go...




| PM palm mute
| /  slide up
| \  slide down
| h  hammer-on
| p  pull-off
| ~  let ring
| b  bend
| *  substitute
| x  mute note
| +  harmonic

=============================================================================== 
            
Submit corrections

comments powered by Disqus
↑ Back to top | I Can Make A Mess Like Nobodys Business Tabs for You're Not So Good At Talking Anymore. Lyrics for acoustic guitar and electric guitar. 1 Tablatures and chords are parodies/interpretations of the original songs. You may use it for private study, scholarship, research or language learning purposes only