» » »

No Idea Where I'm Going Tabs (ver.1)

Artists:  A B C D E F G H I J K L M N O P Q R S T U V W X Y Z # 

No Idea Where I'm Going Tabs (ver.1)

I Can Make A Mess Like Nobodys Business
Rating:
0/5 (0 votes)

Hard to play? Try these video lessons and learn fast.
                Capo 6th Fret



Part 1

E|-----3-----3-----3--|
B|-----3-----3-----3--|
G|-----0-----0-----0--|
D|-----0-----0-----0--|
A|--3--3--2--2--------|
E|--------------0--0--|

Part 2:
E|-----3-----3-----3-----3--|
B|-----3-----3-----3-----3--|
G|-----0-----0-----0-----0--|
D|-----0-----0-----0-----0--|
A|--------------------------|
E|--5--5--3--3--2--2--0--0--|

Part 3:
E|-----3-----3-----3-----3-----3--|
B|-----3-----3-----3-----3-----3--|
G|-----0-----0-----0-----0-----0--|
D|-----0-----0-----0-----0-----0--|
A|--2--2--------3--3--2--2--------|
E|--------0--0--------------0--0--|


Verse 1 = Part 1
As I walk down the mountain
I know I'll find my way home
and though I have no idea where I'm going
I know I'll find my way home

Verse 2 = Part 2
It's nice when weathers getting back
I get so cold I get nervous
It's nice where I don't know where i am
I get so scared I start to wonder
who I am
(I have no flipping idea what chord he plays right here)
or why am I on this mountain

Outro = Part 3


Here's me playing it if you're not sure :P
            
Hard to play? Try these video lessons and learn fast. | Correct




comments powered by Disqus
↑ Back to top | Tablatures and chords are parodies/interpretations of the original songs. You may use it for private study, scholarship, research or language learning purposes only