» » »

I Can Make A Mess Like Nobodys Business, But When The Little Fellow Came Close And Put Both Arms Around His Mother And Kissed Her In An Appea Tabs (ver.1)

Artists:  A B C D E F G H I J K L M N O P Q R S T U V W X Y Z # 

But When The Little Fellow Came Close And Put Both Arms Around His Mother And Kissed Her In An Appea Tabs (ver.1)

I Can Make A Mess Like Nobodys Business Tabs
 Rating:
4.7/5 (15 votes)
But When The Little Fellow Came Close And Put Both Arms Around His Mother And Kissed Her In An Appea lessons Tabs too difficult? Try these video lessons and learn fast
1
                Kissed Her in an Appealing, Boyish Fashion, She was Moved to Tenderness


Tuning: 1/2 Step down (Eb Ab Db Gb Bb eb)
.=PALM MUTE
x=MUTE STRING
/=SLIDE
*=HARMONIC
~=LET RING


INTRO

GUITAR 1
Eb|---2--------3p2--------------------3---------3---------3---------2--------3p2--------------|
Bb|--------3---------3-----------3--------3-----------3---------3-------3-----------3---------|
Gb|-------------------------------------------------------------------------------------------|  [X2]
Db|---0------(0)----------------------0---------------------------------0-----(0)-------------|
Ab|---------------------------------------------3---------3p2---0-----------------------------|
Eb|----------------------2---3----------------------------------------------------------------|

Eb|---2---------3p2-------------|
Bb|--------3-----------3--------|
Gb|-----------------------------| [X2]
Db|---0---------(0)---(0)-------|
Ab|-----------------------------|
Eb|-----------------------------|

------------------------------------------------------------------------------------------

VERSE 


Eb|---2--------3p2--------------------3---------3---------3---------2--------3p2--------------|
Bb|--------3---------3-----------3--------3-----------3---------3-------3-----------3---------|
Gb|-------------------------------------------------------------------------------------------|  [X2]
Db|---0------(0)----------------------0---------------------------------0-----(0)-------------|
Ab|---------------------------------------------3---------3p2---0-----------------------------|
Eb|----------------------2---3----------------------------------------------------------------|
"I remember a man who was true to himself, 
 if he put his mind to something it was done,
 he could help everyone just by doing what he loved,
 he could work with his hands so good, "


Eb|---2---------3p2-------------|
Bb|--------3-----------3--------|
Gb|-----------------------------| [X2]
Db|---0---------(0)---(0)-------|
Ab|-----------------------------|
Eb|-----------------------------|


Eb|---3~-------3~--------3~------3~-------3~-------3~-------3~-------|
Bb|--------3--------3--------3--------3--------3--------3------------|
Gb|------------------------------------------------------------------| [X1]
Db|------------------------------------------------------------------|
Ab|---3~-------3~--------3~------3~-------2~-------2~-------2~-------|
Eb|------------------------------------------------------------------|
"But when no one cares to know,
 that he works them to the bone."


Eb|---2--------3p2--------------------3---------3---------3---------2--------3p2--------------|
Bb|--------3---------3-----------3--------3-----------3---------3-------3-----------3---------|
Gb|-------------------------------------------------------------------------------------------|  [X2]
Db|---0------(0)----------------------0---------------------------------0-----(0)-------------|
Ab|---------------------------------------------3---------3p2---0-----------------------------|
Eb|----------------------2---3----------------------------------------------------------------|
"He comes home to himself and he sits in his chair,
 gets lost inside pictures on the wall, 
 he's had some loves in his life that he's lost but knows why,
 he's lived with mistakes for so long..."


Eb|---2---------3p2-------------|
Bb|--------3-----------3--------|
Gb|-----------------------------| [X2]
Db|---0---------(0)---(0)-------|
Ab|-----------------------------|
Eb|-----------------------------|

------------------------------------------------------------------------------------------

PRE-CHORUS

Eb|---3~-------3~--------3~------3~-------3~-------3~-------3~-------|
Bb|--------3--------3--------3--------3--------3--------3------------|
Gb|------------------------------------------------------------------| [X1]
Db|------------------------------------------------------------------|
Ab|---3~-------3~--------3~------3~-------2~-------2~-------2~-------|
Eb|------------------------------------------------------------------|
 "he's the best man that I know, 
  he sleeps happy all alone, he gives me.."

------------------------------------------------------------------------------------------

CHORUS

              D/A            G5          Cadd9          D/A
Eb|------------2-------------3-------------3-------------2-------------|
Bb|------------3-------------3-------------3-------------3-------------|
Gb|------------2-------------0-------------0-------------2-------------|  [X2]
Db|------------0-------------0-------------2-------------0-------------|
Ab|------------0-------------X-------------3-------------0-------------|
Eb|------------X-------------3-------------X-------------X-------------|
"Hope for the best in everyone,
 in understanding what we've done, 
 I laugh to myself, 
 it gives me hope 

 for the best for what we lost, 
 to understand when no one wants, 
 it makes me laugh, 
 it gives me hope."

------------------------------------------------------------------------------------------

VERSE 

Eb|---2--------3p2--------------------3---------3---------3---------2--------3p2--------------|
Bb|--------3---------3-----------3--------3-----------3---------3-------3-----------3---------|
Gb|-------------------------------------------------------------------------------------------|  [X2]
Db|---0------(0)----------------------0---------------------------------0-----(0)-------------|
Ab|---------------------------------------------3---------3p2---0-----------------------------|
Eb|----------------------2---3----------------------------------------------------------------|
"I know this lady who grew up so quickly, 
 she had a child when she was so young, 
 without the time or money to pursue what she wanted, 
 she slowly lost touch with her love"

Eb|---2---------3p2-------------|
Bb|--------3-----------3--------|
Gb|-----------------------------| [X2]
Db|---0---------(0)---(0)-------|
Ab|-----------------------------|
Eb|-----------------------------|


Eb|---3~-------3~--------3~------3~-------3~-------3~-------3~-------|
Bb|--------3--------3--------3--------3--------3--------3------------|
Gb|------------------------------------------------------------------| [X1]
Db|------------------------------------------------------------------|
Ab|---3~-------3~--------3~------3~-------2~-------2~-------2~-------|
Eb|------------------------------------------------------------------|
"I bet she tried to run,
 But she didn't have the guts to leave her, "


Eb|---2--------3p2--------------------3---------3---------3---------2--------3p2--------------|
Bb|--------3---------3-----------3--------3-----------3---------3-------3-----------3---------|
Gb|-------------------------------------------------------------------------------------------|  [X2]
Db|---0------(0)----------------------0---------------------------------0-----(0)-------------|
Ab|---------------------------------------------3---------3p2---0-----------------------------|
Eb|----------------------2---3----------------------------------------------------------------|
"son who was born on a day in the spring, 
 grew up to respect her so much,
 for all that she had lost and for never giving up,
 for loving the mistake that she loved..."


Eb|---2---------3p2-------------|
Bb|--------3-----------3--------|
Gb|-----------------------------| [X2]
Db|---0---------(0)---(0)-------|
Ab|-----------------------------|
Eb|-----------------------------|


------------------------------------------------------------------------------------------

PRE-CHORUS


Eb|---3~-------3~--------3~------3~-------3~-------3~-------3~-------|
Bb|--------3--------3--------3--------3--------3--------3------------|
Gb|------------------------------------------------------------------| [X1]
Db|------------------------------------------------------------------|
Ab|---3~-------3~--------3~------3~-------2~-------2~-------2~-------|
Eb|------------------------------------------------------------------|
"well lady you deserve 
 more than anyone I know, you give me..."

------------------------------------------------------------------------------------------

CHORUS

              D/A            G5          Cadd9          D/A
Eb|------------2-------------3-------------3-------------2-------------|
Bb|------------3-------------3-------------3-------------3-------------|
Gb|------------2-------------0-------------0-------------2-------------|  [X2]
Db|------------0-------------0-------------2-------------0-------------|
Ab|------------0-------------X-------------3-------------0-------------|
Eb|------------X-------------3-------------X-------------X-------------|
"Hope for the best in everyone,
 in understanding what we've done, 
 I laugh to myself, 
 it gives me hope 

 for the best for what we lost, 
 to understand when no one wants, 
 it makes me laugh, 
 it gives me hope."

------------------------------------------------------------------------------------------

VERSE 


Eb|---2--------3p2--------------------3---------3---------3---------2--------3p2--------------|
Bb|--------3---------3-----------3--------3-----------3---------3-------3-----------3---------|
Gb|-------------------------------------------------------------------------------------------|  [X2]
Db|---0------(0)----------------------0---------------------------------0-----(0)-------------|
Ab|---------------------------------------------3---------3p2---0-----------------------------|
Eb|----------------------2---3----------------------------------------------------------------|
"I'm sitting alone and I think to myself,
 it'd be great if people could know,
 if we wore big tags or we threw big parties 
 where only lost people could go,"

Eb|---2---------3p2-------------|
Bb|--------3-----------3--------|
Gb|-----------------------------| [X2]
Db|---0---------(0)---(0)-------|
Ab|-----------------------------|
Eb|-----------------------------|



Eb|---3~-------3~--------3~------3~-------3~-------3~-------3~--------3~-----|
Bb|--------3--------3--------3--------3--------3--------3--------3~----------|
Gb|--------------------------------------------------------------------------| [X1]
Db|--------------------------------------------------------------------------|
Ab|---3~-------3~--------3~------3~-------2~-------2~-------2~--------2~-----|
Eb|--------------------------------------------------------------------------|
"so we'd never think we're wrong, 
 and we'd never feel alone..."


             D/A            
Eb|-----------2-------------|
Bb|-----------3-------------|
Gb|-----------2-------------|
Db|-----------0-------------|
Ab|-----------0-------------|
Eb|-----------X-------------|
"alone."

Rate!
            
Submit corrections

comments powered by Disqus
↑ Back to top | I Can Make A Mess Like Nobodys Business Tabs for But When The Little Fellow Came Close And Put Both Arms Around His Mother And Kissed Her In An Appea. Lyrics for acoustic guitar and electric guitar. 1 Tablatures and chords are parodies/interpretations of the original songs. You may use it for private study, scholarship, research or language learning purposes only