>
 >
New Day

New Day Guitar Tabs

Ian Moore - New Day chords, tabs, tablatures, lyrics

Guitar lessons | Add/correct | Request | Top 50 tabs Artists:  A B C D E F G H I J K L M N O P Q R S T U V W X Y Z 0-9

New Day Guitar Tabs – Ian Moore

CD, Sheet music, Poster

Do you like New Day? Share with your friends now
Tabs
-------------------------------------------------------------------------------
                          New Day by Moore Ian
-------------------------------------------------------------------------------

Tuning:  Standard

Intro:  C  F  C  F  C  F  G  C


This is the guitar part through the verse (same as Intro), the vocal part mimics this, 
just play along with it as you sing it.


    C            F       C
e :--------------------------------------------------------------------|
B :------------------1-----------1-------------------------------------|
G :----------------2---2-----0-----0-----------------------------------|
D :----0-2---0-2-3---------2---2---------------------------------------|
A :--3-----3-------------3---------------------------------------------|
E :--------------------------------------------------------------------|

Repeat 2 then

    C            F       C       G      C
e :--------------------------------------------------------3-----------|
B :------------------1-------------------------1---1---1---------------|
G :----------------2---2-----0---------0-----0---0---0---0-------------|
D :----0-2---0-2-3---------2---2-----0-----2---------------------------|
A :--3-----3-------------3---------2-----3-----------------------------|
E :------------------------------3-------------------------------------|


Verse 1
C                   F   C
Every day is like a new day
C                          F       C
Sun has broken through the night's haze
C                        F   C
I drink my coffee from a big cup
C                      F   C   G   C
And I ain't ever gonna get up, get up.


Verse 2
C                          F    C
If I was a writer well I'd lay around
C                      F         C
Smoking cigarettes and thinking about
    C                      F       C
The life I'd live if I was someone else
   C                       F    C     G    C
If love was lost and I was by myself, by myself

Chorus
C                          F        C
But babe your love it is a mountain stream
C                              F      C
What's rough and rocky turns a valley green
C                            F    C
And just to love you baby is not enough
C                       F         C   G         C
Yeah honey I just wanna drink you up, drink you up
C                  F        C
Na na na na na na, na na na na
C                  F        C
Na na na na na na, na na na na
C                  F        C        G        C
Na na na na na na, na na na na na na na na na na

Verse 3
C                       F         C
My head is heavy and my tongue is slow
C                        F       C
But I just wanna call to let you know
C                                  F      C
Your words weren't wasted baby I'm doing OK
C                       F   C    G   C
And every day is like a new day, new day
F   C    G   C
New day, New day
F   C    G   C    F   C    G                        F F/E F/D C C/B G C
New day, New day, New day, New oh oh oh oh oh oh oh day

The outro walkdown chords are as follows:

          F      F/E     F/D      C      C/B      G
    --0-    --0--    --0--    --0--    --0--    --3---|
    --1-    --1--    --1--    --1--    --1--    --3---|
    --2-    --0--    --2--    --0--    --0--    --0---|
    --3-    --2--    --0--    --2--    --0--    --0---|
    --x-    --x--    --x--    --3--    --2--    --2---|
    --x-    --x--    --x--    --x--    --x--    --3---|

     F     F/E        F/D     C       C/B     G     C
e :--------0-------0--------0-------------------------0----------------|
B :------1-------1--------1---------1-------1---------1----------------|
G :----2-------0--------2---------0-------0---------0-0----------------|
D :--3-------2--------0---------2-------2---------0---2----------------|
A :---------------------------3-------2---------2-----3----------------|
E :-------------------------------------------3------------------------|


| /  slide up
| \  slide down
| h  hammer-on
| p  pull-off
| ~  vibrato
| +  harmonic
| x  Mute note





Comments


Popular Ian Moore tabs & chords
Lie Chords
Muddy Jesus Chords
Satisfied Chords
April Tabs
Bar Line 9 Tabs
How Does It Feel Tabs
Muddy Jesus Tabs
Society Tabs
Today Tabs
Magdalena Ukulele


Song lyrics



↑ Back to top | Tablatures and chords are parodies/interpretations of the original songs. You may use it for private study, scholarship, research or language learning purposes only
© 2014 AZChords.com Contact us | Privacy policy | DMCA | Add/correct tabs | Request tabs | Top 50 tabs